Song name
# A B C D E F G H I J K L M N O P Q R S T U V W X Y Z

Matthews Dave - What Would You Say tab

Intro/Verse/Chorus:     Here,bend the C# note up half a step 
e-----------------------------
b---------3/5----2*---0-------
g------0--2/4----2------2-----
d----------------2--------2---
a-----------------------------
E--3/5---------3--------------

Pre-Chorus:F G Am G F E F G

Jam:
e------------------------------------
b--8----8----------------------------
g--7----6---2--3--4------------------
d--5----x---2--2--4------------------
a--7----7---0--3--2------------------
E--0----5------------0-0-0h3---------
Tap to rate this tab
# A B C D E F G H I J K L M N O P Q R S T U V W X Y Z