Song name
# A B C D E F G H I J K L M N O P Q R S T U V W X Y Z

Matthias Reim - Gib Mein Herz Her tab

Title:  Gib mein Herz her
Artist: Matthias Reim
Album:  Männer sind Krieger

E-Mail: d.pehlke@hotmail.de

Intro:
2 Guitars arranged for 1
2 Gitarren arrangiert für 1
             Am         Asus4  Am     Asus2      Am         Asus4  Am     Asus2                 
e|| ----------|-----0-----------|-----------------|-----0-----------|-----------------|
B|| ----------|-----------3-----|-1-----0---------|-----------3-----|-1-----0---------|
G||.----------|-------2-----2---|---2-------------|-------2-----2---|---2-------------|
D||.----------|---2-----2-----2-|-----2-----0-2---|---2-----2-----2-|-----2-----------|
A|| ------0-3-|-0---------------|---------------3-|-0---------------|-------------0-3-|
E|| --0-3-----|-----------------|-----------------|-----------------|---------0-3-----|

  Am/F       Asus4  Am     Asus2      Am/G       Asus4  Am/G
e|-----0-----------|-----------------|-----0-----------|-0- ||
B|-----------3-----|-1-----0---------|-----------3-----|-1- ||
G|-------2-----2---|---2-------------|-------2-----2---|-2-.||                               x2
D|---2-----2-----2-|-----2-----0-2---|---2-----2-----2-|-2-.||
A|-----------------|---------------3-|-----------------|--- ||
E|-1---------------|-----------------|-3---------------|-3- ||


Verse 1:
Am                 G
Da steh ich in der Türe
Dm
wir sehn uns nochmal an
F                     G                 Am   G Am
und ich weiß dass ich dich nicht halten kann
                    G
Wir reichen uns die Hände
Dm
hey es wird alles gut
F                     G               Am   G Am  
zur Wahrheit ham´ wir beide nicht den Mut
Dm
Ein Abschied kann so traurig sein
     F               G
doch manchmal auch befrei´n

             Am         Asus4  Am     Asus2      Am         Asus4  Am     Asus2                 
e|----------|-----0-----------|-----------------|-----0-----------|-----------------|
B|----------|-----------3-----|-1-----0---------|-----------3-----|-1-----0---------|
G|----------|-------2-----2---|---2-------------|-------2-----2---|---2-------------|
D|----------|---2-----2-----2-|-----2-----0-2---|---2-----2-----2-|-----2-----------|
A|------0-3-|-0---------------|---------------3-|-0---------------|-----------------|
E|--0-3-----|-----------------|-----------------|-----------------|-----------------|


Chorus:
C        G    Dm  C   Am
Gib mein Herz einfach her
C                   G             Am   G Am
du brauchst es doch sowieso nicht mehr
C       G        Dm    C  Am 
Mach es uns doch nicht so schwer
C              G               Am   G Am
komm lass mein Herz los gib es her
        Dm                    
Denn es stirbt in deinen Händen
     F                     G
ohne Liebe schlägt´s nicht mehr
           Am
Gib es her


Verse 2:
Am              G
Ich war nur die Leinwand
Dm         
für deine Projektion
F                    G
für deinen Traum vom Supermann
    Am    G   Am
für deine Illusion
                      G
Ich wollt dich nie enttäuschen
Dm                   
war halt bloß immer ich
F                    G
Und das ist was mich fertig macht
    Am          G    Am
ich reichte dir wohl nicht
Dm                                
Komm lass uns nicht mehr traurig sein
    F                  G
wir werden uns jetzt befrei´n


Chorus:
C        G    Dm  C   Am
Gib mein Herz einfach her
C                   G           Am   G Am
du brauchst es doch sowieso nie mehr
C       G        Dm    C  Am 
Mach es uns doch nicht so schwer
C              G               Am   G Am
komm lass mein Herz los gib es her


C        G    Dm  C   Am
Gib mein Herz einfach her
C                   G             Am   G Am
du brauchst es doch sowieso nicht mehr
C       G        Dm    C  Am 
Mach es uns doch nicht so schwer
C              G               Am   G Am
komm lass mein Herz los gib es her
        Dm                    
Denn es stirbt in deinen Händen
     F                     G
ohne Liebe schlägt´s nicht mehr
           Am
Gib es her


Outro:
  Am         Asus4  Am     Asus2                     
e|-----0-----------|-----------------|
B|-----------3-----|-1-----0---------|
G|-------2-----2---|---2-------------|        repeat and fade out
D|---2-----2-----2-|-----2-----0-2---|
A|-0---------------|---------------3-|
E|-----------------|-----------------|
Tap to rate this tab
# A B C D E F G H I J K L M N O P Q R S T U V W X Y Z