Song name
# A B C D E F G H I J K L M N O P Q R S T U V W X Y Z

Mattrach - Dark Paradise tab

Dark Paradise Mattrach

Drop d

Intro (not right)

------------------------------------|
------------------------------------|
------------------------------------|
----0-1---3---1-0-----0-1---3---1---|
--3-----3---3-------3-----3---3---3-|
------------------------------------|

------------------------------------|
------------------------------------|
------------------------------------|
----0-1---3---1-------0-1---3---1---|
------------------------------------|
--1-----1---1---1---1-----1---1---1-|

------------------------------------|
------------------------------------|
------------------------------------|
----0-1---3---1-------0-1---3---1---|
------------------------------------|
--3-----3---3---3---3-----3---3---3-|repeat


Lead
------------------------------------|
----13-15-16-18-20~--18h20p18-16----|
-12----------------------------.----|
------------------------------------|
------------------------------------|
------------------------------------|

--18--------------------------------|
-----20-16-15-----------------------|
--------------15~---13/12-----------|
------------------------------------|
------------------------------------|
------------------------------------|

------------------------------------------|
-8---11/13\11/138~----8---13/15\13/15-8~-|
------------------------------------------|
------------------------------------------|
------------------------------------------|
------------------------------------------|

------------------------------------|
----13-15-16-18-20~--18h20p18-16----|
-12----------------------------.----|
------------------------------------|
------------------------------------|
------------------------------------|

--18--------------------------------|
-----20-16-15-----------------------|
--------------15~---13/12-----------|
------------------------------------|
------------------------------------|
------------------------------------|

----------------------------------------------------|
-8---11/13\11/138~----8---13/15\13/15-16~--18-20~--|
----------------------------------------------------|
----------------------------------------------------|
----------------------------------------------------|
----------------------------------------------------|


-------------------------------------------|
-15b~15b~--13~---------11-13---89h8------|
---------------------12---------------10~--|
-------------------------------------------|
-------------------------------------------|
-------------------------------------------|

--18b-------15b------------------------------|
-------16---------13--------------15-16------|
-----------------------12---12h13------------|
---------------------------------------------|
---------------------------------------------|
---------------------------------------------|

-------------------------------------------|
-15b~15b~--13~---------11-13---89h8------|
---------------------12---------------10~--|
-------------------------------------------|
-------------------------------------------|
-------------------------------------------|


--20b----------15b--------18----18----18--------|
-------18b-----------16------15----16-----13~---|
------------------------------------------------|
------------------------------------------------|
------------------------------------------------|
------------------------------------------------|
Then repeat etc
Tap to rate this tab
# A B C D E F G H I J K L M N O P Q R S T U V W X Y Z