Song name
# A B C D E F G H I J K L M N O P Q R S T U V W X Y Z

Mattrach - Christmas Songs chords

----------------------------------------------------------------------------
		     Christmas songs remix - MattRach
----------------------------------------------------------------------------

Tabbed by: Johnny
Email: Quiksilver6016@yahoo.com

Tuning: EADGBE

e|---------------------------------14-14-11-------------------------11-12--|
B|-/12-12h14p12----12-12h14p12--------------14-16-16b-16-12*-/14-14--------|
G|--------------13-------------13*-----------------------------------------|
D|-------------------------------------------------------------------------|
A|-------------------------------------------------------------------------|
E|-------------------------------------------------------------------------|

e|-11-----------------------------11-12-11----------------------14-16-16b--|
B|----12-12b-12/14\12-------14-14----------12-12b-12/14\12-----------------|
G|--------------------11/13--------------------------------11/13-----------|
D|-------------------------------------------------------------------------|
A|-------------------------------------------------------------------------|
E|-------------------------------------------------------------------------|

e|-14-----------------11h12-11-------------------|-------------------------|
B|----16-17-19-17-21b----------12----------------|-------------------------|
G|--------------------------------13h14----------|-------------------------|
D|--------------------------------------14/16\14-|-1x-(many-times)-x////---|
A|-----------------------------------------------|-------------------------|
E|-----------------------------------------------|-------------------------|

e|-------------------------------------------------------------------------|
B|12-12-12-12-12-12-12-14-------12-14-14-14-141414-12-12-121212-10-10-12-10|
G|------------------------13-14--------------------------------------------|
D|-------------------------------------------------------------------------|
A|-------------------------------------------------------------------------|
E|-------------------------------------------------------------------------|
   
e|12-------------------------------------------------------------14-14-12--|
B|---12-12-12-12-12-12-12-14-------12-14-14-14-141414-12-12-1212-----------|
G|---------------------------13-14-----------------------------------------|
D|-------------------------------------------------------------------------|
A|-------------------------------------------------------------------------|
E|-------------------------------------------------------------------------|

e|11-12--------------------------------------------------------------------|
B|------------------------------------------------------------15-15-17-17--|
G|-------------17-16-14-----------17-16-14-----------17-16-14--x--x--x--x--|
D|------141414--x--x--x-14-141414--x--x--x-16-141414--x--x--x--------------|
A|-------x-x-x-----------x--xxx-------------x--xxx-------------------------|
E|-------------------------------------------------------------------------|

e|-------------------------------------------------------------------------|
B|15-14-15*-------------------------------------------------------15-15-15-|
G|-x--x------------17-16-14-----------17-16-14-----------17-16-14----------|
D|----------141414--x--x--x-14-141414--x--x--x-16-141414--x--x--x----------|
A|-----------xxx-------------x--xxx----------------xxx---------------------|
E|-------------------------------------------------------------------------|

e|-------------------------------------------------------------------------|
B|15-17-17-15-14-15--------------------------------------------------------|
G|------------------(Then-just-repeat-main-riff-until-the-end!)------------|
D|-------------------------------------------------------------------------|
A|-------------------------------------------------------------------------|
E|-------------------------------------------------------------------------|


| /  slide up
| \  slide down
| h  hammer-on
| p  pull-off
| ~  vibrato
| *  pinch harmonic
| x  Palm Mute
============================================================================
Tap to rate this tab
 
# A B C D E F G H I J K L M N O P Q R S T U V W X Y Z