Song name
# A B C D E F G H I J K L M N O P Q R S T U V W X Y Z

Mattrach - Come In tab

-----------------------------------------------------------------
COME IN - Mattrach
-----------------------------------------------------------------
Tabbed by:Frank Truei
Email:BrokenSword421@hotmail.com

Tuning: EADGBe

Opening (0:00 - 0:31)
e|------------|
B|------------|
G|------------| x6 
D|-------5----|
A|---5-7---7-5|
E|0-----------|

e|------------|
B|------------|
G|------------|  x2
D|-------7----| 
A|---5-7---7-5|
E|-0----------|

Repeat the above parts 3 times, and on the third time another guitar part comes in and goes

e|-----------|
B|------8----| 
G|--7-9---9-7|  x6
D|-----------|
A|-----------|
E|-----------|

e|-----------|
B|----10-----|
G|7-9----9-7-|
D|-----------|
A|-----------|
E|-----------|

e|-------|-------|-------|---------------|-------|-------|-------|
B|-------|-------|-------|---------------|-------|-------|-------|
G|9-9-9-9|8-8-8-8|7-7-7-7|6-6-6-6/9-9-9-9|9-9-9-9|9-9-9-9|9-9-9\-|
D|9-9-9-9|8-8-8-8|7-7-7-7|6-6-6-6/9-9-9-9|9-9-9-9|9-9-9-9|9-9-9\-|
A|7-7-7-7|6-6-6-6|5-5-5-5|4-4-4-4/7-7-7-7|7-7-7-7|7-7-7-7|7-7-7\-|
E|-------|-------|-------|---------------|-------|-------|-------|

Part 2 (0:32 - 1:02)

e|*12------|----9----|*12------|----9--10|------12---|----9--10--|
B|*12------|--8------|*12------|--8------|---12------|--8--------|
G|---------|9--------|---------|9--------|12---------|9----------|
D|---------|---------|---------|---------|-----------|-----------|
A|---------|---------|---------|---------|-----------|-----------|
E|---------|---------|---------|---------|-----------|-----------|

e|------12-*12-------|----9--10|
B|---12----*12-------|--8------|
G|12-----------------|9--------|
D|-------------------|---------|
A|-------------------|---------|
E|-------------------|---------|

Chorus (1:02 - 1:17)

e|------19-------17-------15-------15-------15---|
B|17-17----17-17----17-17----17-17----17-17----17|
G|-----------------------------------------------|
D|-----------------------------------------------|
A|-----------------------------------------------|
E|-----------------------------------------------|

e|----10-----9-----10-----9-----9----|
B|--8------8---8------8-----8-----8--|
G|9------9-------9------9-----9------|
D|-----------------------------------|
A|-----------------------------------|
E|-----------------------------------|

e|------19-------17-------15-------15-------15---|
B|17-17----17-17----17-17----17-17----17-17----17|
G|-----------------------------------------------|
D|-----------------------------------------------|
A|-----------------------------------------------|
E|-----------------------------------------------|


e|----10-----9-----9-9-9-9-9-9-9-9---|
B|--8------8---8---9-9-9-9-9-9-9-9---|
G|9------9-------9-7-7-7-7-7-7-7-7---|
D|-----------------------------------|
A|-----------------------------------|
E|-----------------------------------|

Part 4 (1:18- 1:47)
LEAD PART
e|*12------|----9----|*12------|----9--10|------12---|9------10--|
B|*12------|--8------|*12------|--8------|---12------|--8--------|
G|---------|9--------|---------|9--------|12---------|----9------|
D|---------|---------|---------|---------|-----------|-----------|
A|---------|---------|---------|---------|-----------|-----------|
E|---------|---------|---------|---------|-----------|-----------|

e|------12-*12-------|----9--10|
B|---12----*12-------|--8------|
G|12-----------------|9--------|
D|-------------------|---------|
A|-------------------|---------|
E|-------------------|---------|

RHYTHM PART

 PM this whole line \/ 
e|-----------------------------------|
B|-----------------------------------|
G|-----------------------------------| x3
D|---------------------------55------|
A|5-57-75-5-57-75-5-57-75-77----77-55|
E|-----------------------------------|
  PM PM PM PM PM PM PM PM PM
e|------------------------------------|
B|------------------------------------|
G|------------------------------------| 
D|------------------------------------|
A|5-57-75-5-57-75-5-57-75-5--5s7\-----|
E|------------------------------------|

 PM this whole line \/ 
e|-----------------------------------|
B|-----------------------------------|
G|-----------------------------------| x3
D|---------------------------55------|
A|5-57-75-5-57-75-5-57-75-77----77-55|
E|-----------------------------------|

  PM PM PM PM PM PM PM PM PM
e|--------------------------------------|
B|--------------------------------------|
G|--------------------------------------| 
D|---------------------------5s7-5------|
A|5-57-75-5-57-75-5-57-75-5--------7\---|
E|--------------------------------------|


Chorus 2 (1:47 - 2:05)

e|------19-------17-------15-------15-------15---|
B|17-17----17-17----17-17----17-17----17-17----17|
G|-----------------------------------------------|
D|-----------------------------------------------|
A|-----------------------------------------------|
E|-----------------------------------------------|

e|----10-----9-----10-----9-----9----|
B|--8------8---8------8-----8-----8--|
G|9------9-------9------9-----9------|
D|-----------------------------------|
A|-----------------------------------|
E|-----------------------------------|

e|------19-------17-------15-------15-------15---|
B|17-17----17-17----17-17----17-17----17-17----17|
G|-----------------------------------------------|
D|-----------------------------------------------|
A|-----------------------------------------------|
E|-----------------------------------------------| 

e|----10-----9-----9-9-9-9-9-9-9999--|
B|--8------8---8---9-9-9-9-9-9-9999--|
G|9------9-------9-7-7-7-7-7-7-7777--|
D|-----------------------------------|
A|-----------------------------------|
E|-----------------------------------|

SOLO 2:06 - 2:36)

e|/19p0-17p0-15p0-17p0-15p0-14p0-15p0-12p0-14p0|
B|---------------------------------------------|
G|---------------------------------------------|
D|---------------------------------------------|
A|---------------------------------------------|
E|---------------------------------------------|

e|---------10----------10----------10-12|
B|10-11-12----10-11-12----10-11-12------|
G|--------------------------------------|
D|--------------------------------------|
A|--------------------------------------|
E|--------------------------------------|

e|/19p0-17p0-15p0-17p0-15p0-14p0-15p0-12p0-14p0|
B|---------------------------------------------|
G|---------------------------------------------|
D|---------------------------------------------|
A|---------------------------------------------|
E|---------------------------------------------|

e|---------10----------12-10----10-------------|
B|10-11-12----10-11-12-------12----12-11-10----|
G|------------------------------------------12-|
D|---------------------------------------------|
A|---------------------------------------------|
E|---------------------------------------------|

e|/19p0-17p0-15p0-17p0-15p0-14p0-15p0-12p0-14p0|
B|---------------------------------------------|
G|---------------------------------------------|
D|---------------------------------------------|
A|---------------------------------------------|
E|---------------------------------------------|

e|---------10----------10----------10-12|
B|10-11-12----10-11-12----10-11-12------|
G|--------------------------------------|
D|--------------------------------------|
A|--------------------------------------|
E|--------------------------------------|

e|12p0-10p0-9p0-10p0-9p0-7p0-9p0-5p0-7p0-3p0-5p0-2p0-3p0-5p0-3p0-2p0|
B|------------------------------------------------------------------|
G|------------------------------------------------------------------|
D|------------------------------------------------------------------|
A|------------------------------------------------------------------|
E|------------------------------------------------------------------|

Take all of the above in the solo section and repeat it.

Outro (2:36 - 2:55)

e|------------|
B|------------|
G|------------| x6 
D|-------5----|
A|---5-7---7-5|
E|0-----------|

e|------------|
B|------------|
G|------------|  x2
D|-------7----| 
A|---5-7---7-5|
E|-0----------|


e|-------|-------|-------|---------------|-------|-------|-------|
B|-------|-------|-------|---------------|-------|-------|-------|
G|9-9-9-9|8-8-8-8|7-7-7-7|6-6-6-6/9-9-9-9|9-9-9-9|9-9-9-9|9-9-9-9|
D|9-9-9-9|8-8-8-8|7-7-7-7|6-6-6-6/9-9-9-9|9-9-9-9|9-9-9-9|9-9-9-9|
A|7-7-7-7|6-6-6-6|5-5-5-5|4-4-4-4/7-7-7-7|7-7-7-7|7-7-7-7|7-7-7-7|
E|-------|-------|-------|---------------|-------|-------|-------|


Tap to rate this tab
# A B C D E F G H I J K L M N O P Q R S T U V W X Y Z