Song name
# A B C D E F G H I J K L M N O P Q R S T U V W X Y Z

Maudlin Of The Well - Geography tab

                                            Geography
                                       maudlin of the Well

Tuning DADGBF

Tabbed 100% by ear

Verse Riff
F||---0----------------|--0----------------|--0----------------|--0-----------------||
B||--------------3--1--|-------------3--1--|-------------3--1--|-------------3--1---||
G||*----------2--------|----------2--------|----------2--------|----------2--------*||
D||*-------0-----------|-------0-----------|-------0-----------|-------0-----------*||
A||--------------------|-------------------|-------------------|--------------------||
D||---0----------------|--0----------------|--0----------------|--0-----------------||


Chorus 1
|-------9-----0-----|--7---------------------|------------4----|------------4----|
|-------------6-----|--------5pbr--L---5-----|--3--------------|--3----1---------|
|-------------------|------------------------|-----------------|-----------------|
|-------------------|------------------------|-------0---------|-----------------|
|-------------------|------------------------|--3--------------|-----------------|
|--0----------------|------------------------|-----------------|-----------------|

|---------------------|-------------------|-------------4----|-------------4----|
|--1-----------/3-----|--------------1----|--3---------------|--3---------------|
|---------------------|-----------2-------|------------------|------------------|
|--------3--0---------|--0--0--0----------|-------0--0-------|-------0--0-------|
|---------------------|-----0-------------|--3-------0-------|--3-------0-------|
|---------------------|-------------------|------------------|------------------|

|-------9-----0-----|--7---------------------|------------4----|------------4----|
|-------------6-----|--------5pbr--L---5-----|--3--------------|--3--------------|
|-------------------|------------------------|-----------------|-----------------|
|-------------------|------------------------|-------0---------|-------0--0------|
|-------------------|------------------------|--3--------------|--3-------0------|
|--0----------------|------------------------|-----------------|-----------------|

|--------------------|---------------|---------------|---------------|---------------|
|--------------------|---------------|---------------|---------------|---------------|
|--2-----------5-----|---------------|---------------|---------------|---------------|
|--------------------|--0------------|--L------------|--L------------|--L------------|
|--0--0-----0--3-----|--0------------|--L------------|--L------------|--L------------|
|--------0--------0--|--3------------|--L------------|--L------------|--L------------|


Verse 2:
||---0----------------|--0----------------|--0----------------|--0-----------------||
||--------------3--1--|-------------3--1--|-------------3--1--|-------------3--1---||
||*----------2--------|----------2--------|----------2--------|----------2--------*||
||*-------0-----------|-------0-----------|-------0-----------|-------0-----------*||
||--------------------|-------------------|-------------------|--------------------||
||---0----------------|--0----------------|--0----------------|--0-----------------||


Start of Solo:
-------------------------|----------------|-------------------|------------------------|
-------------------------|----------------|--13g15------------|--17----13--------------|
-------------10--10--10--|--10------------|-------------------|--------------14s--12s--|
-----10--10--10--10--10--|--10------------|-------------------|------------------------|
--8---8---8---8---8---8--|---8------------|-------------------|------------------------|
--0---0---0---0---0---0--|---0------------|-------------------|------------------------|

--------------------|--------------------|--------------------|------------------------|
--------------------|--------------15----|--------------------|------------------------|
--14s--12--9--------|--10----12----------|--10--------L--12s--|--14s--12s--14----------|
--------------------|--------------------|--------------------|--------------------10--|
--------------------|--------------------|---------------10s--|--12s--10s--12----------|
--------------------|--------------------|--------------------|------------------------|

--------------------|------------------|-----------------------|-------------------|
-----------------x--|---x----13--------|-----------------------|-------------------|
--7---------10--10--|--10--------------|--10----9s--7s--9s--7--|--5s--7s--9--------|
-------7----10--10--|--10--------------|-----------------------|-------------------|
-------------x---8--|---8--------------|-----------------------|-------------------|
-------------0---0--|---0--------------|-----------------------|-------------------|

                |--3--|
-----------------------|--12------------------|------------------------|----------------------|
---------------------x-|--------13----11--10--|--11p--10---------------|----------------------|
--L---------------x----|----------------------|-----------10------12s--|--14s--12s--14--------|
-----------------------|----------------------|------------------------|----------------------|
-----------------------|----------------------|-------------------10s--|--12s--10s--12--------|
-----------------------|----------------------|------------------------|----------------------|


------------------|
------------------|
--------7----7----|
--10--------------|
------------------|
------------------|


Chorus 3:
|-------9-----0-----|--7---------------------|------------4----|------------4----|
|-------------6-----|--------5pbr--L---5-----|--3--------------|--3----1---------|
|-------------------|------------------------|-----------------|-----------------|
|-------------------|------------------------|-------0---------|-----------------|
|-------------------|------------------------|--3--------------|-----------------|
|--0----------------|------------------------|-----------------|-----------------|

|---------------------|-------------------|-------------4----|-------------4----|
|--1-----------/3-----|--------------1----|--3---------------|--3---------------|
|---------------------|-----------2-------|------------------|------------------|
|--------3--0---------|--0--0--0----------|-------0--0-------|-------0--0-------|
|---------------------|-----0-------------|--3-------0-------|--3-------0-------|
|---------------------|-------------------|------------------|------------------|

|-------9-----0-----|--7---------------------|------------4----|------------4----|
|-------------6-----|--------5pbr--L---5-----|--3--------------|--3--------------|
|-------------------|------------------------|-----------------|-----------------|
|-------------------|------------------------|-------0---------|-------0--0------|
|-------------------|------------------------|--3--------------|--3-------0------|
|--0----------------|------------------------|-----------------|-----------------|

|--------------------|---------------|
|--------------------|---------------|
|--2-----------5-----|---------------|
|--------------------|--0------------|
|--0--0-----0--3-----|--0------------|
|--------0--------0--|--3------------|


Build up to Chorus 4 (heavy)                           pm  pm
--------------------|--------------------|--------------------|--------------------|
--------------------|--------------------|--------------------|--------------------|
--------------------|--7--7--7--7--7--7--|--7--7--7--7--------|--7--7--7--7--7--7--|
--------------------|--0--0--0--0--0--0--|--0--0--0--0--------|--x--x--x--x--x--x--|
--------------8--8--|--8--8--8--8--8--8--|--8--8--8--8--8--8--|--5--5--5--5--5--5--|
--------0--0--0--0--|--0--0--0--0--0--0--|--0--0--0--0--0--0--|--0--0--0--0--0--0--|

--------------------|
--------------------|
--7--7--7--7--7--7--|
--x--x--x--x--x--x--|
--5--5--5--5--5--5--|
--0--0--0--0--0--0--|


--------------------|--------------------|--------------------|--------------------|
--------------------|--------------------|--------------------|--------------------|
--5--5--5--5--5--5--|--5--5--5--5--5--5--|--5--5--5--5--0--0--|--7--7--7--7--7--7--|
--x--x--x--x--x--x--|--x--x--x--x--x--x--|--3--3--3--3--5--5--|--x--x--x--x--x--x--|
--7--7--7--7--7--7--|--7--7--7--7--8--8--|--3--3--3--3--0--0--|--5--5--5--5--5--5--|
--8--8--8--8--8--8--|--8--8--8--8--8--8--|--3--3--3--3--5--5--|--0--0--0--0--0--0--|

--------------------|
--------------------|
--5--5--5--5--5--5--|
--x--x--x--x--x--x--|
--7--7--7--7--7--7--|
--8--8--8--8--8--8--|


--------------------|--------------------|--------------------|--------------------|
--------------------|--------------------|--------------------|--------------------|
--5--5--5--5--5--5--|--7--7--7--7--7--7--|--7--7--7--7--7--7--|--5--5--5--5--5--5--|
--x--x--x--x--x--x--|--x--x--x--x--x--x--|--x--x--x--x--x--x--|--x--x--x--x--x--x--|
--7--7--7--7--8--8--|--5--5--5--5--5--5--|--5--5--5--5--5--5--|--7--7--7--7--7--7--|
--8--8--8--8--8--8--|--0--0--0--0--0--0--|--0--0--0--0--0--0--|--8--8--8--8--8--8--|

--------------------|
--------------------|
--5--5--5--5--5--5--|
--x--x--x--x--x--x--|
--7--7--7--7--8--8--|
--8--8--8--8--8--8--|


----------------------|---------------|---------------|--------------------|--------------------|
----------------------|---------------|---------------|--------------------|--------------------|
--5--5--5--5----------|---------------|---------------|--------------------|--------------------|
--7--7--7--7--10---L\-|--0------------|--L------------|-----------0--0--0--|--0--0--0--0--0--0--|
--0--0--0--0---0---L--|--0------------|--L------------|--5--5--5--5--5--5--|--5--5--5--5--5--5--|
--7--7--7--7--10---L\-|--3------------|--L------------|--------------------|--------------------|


---------------|---------------|---------------|---------------|---------------|---------------|
---------------|---------------|---------------|---------------|---------------|---------------|
---------------|---------------|---------------|---------------|---------------|---------------|
--0------------|---------------|--L------------|--L------------|---------------|---------------|
--5------------|---------------|--L------------|--L------------|---------------|---------------|
--0------------|---------------|--L------------|--L------------|---------------|---------------|

Outro riff:
|-------16--14--------|-------14--------14--19--|
|---------------15----|-----------15------------|
|---------------------|--------------14---------| X3
|---------------------|-------------------------|
|---------------------|-------------------------|
|--0------------------|--0----------------------|


-------16--14--------|-------16--14-----14---|-----------------|---------------|---------------|
---------------15----|--------------15-------|-----------------|---------------|---------------|
---------------------|-----------------------|--<>7------------|--L------------|--L------------|
---------------------|-----------------------|-----------------|---------------|---------------|
---------------------|-----------------------|-----------------|---------------|---------------|
--0------------------|--0--------------------|-----------------|---------------|---------------|


Tablature Legend
----------------
L - tied note
x - dead note
g - grace note
(n) - ghost note
> - accentuded note
NH - natural harmonic
AH - artificial harmonic
TH - tapped harmonic
SH - semi harmonic
PH - pitch harmonic
h - hammer on
p - pull off
b - bend
br - bendRelease
pb - preBend
pbr - preBendRelease
brb - bendReleaseBend
\n/ - tremolo bar dip
\n - tremolo bar dive
-/n - tremolo bar Release up
/n\ - tremolo bar inverted dip
/n - tremolo bar return
-\n - tremolo bar Release down
S - shift slide
s - legato slide
/ -  slide into from below or out of upwards
\ -  slide into from above or out of downwards
~ - vibrato
W - wide vibrato
tr - trill
TP - tremolo picking
T - tapping
S - slap
P - pop
< - fade in
^ - brush up
v - brush down
Tap to rate this tab
# A B C D E F G H I J K L M N O P Q R S T U V W X Y Z