Song name
# A B C D E F G H I J K L M N O P Q R S T U V W X Y Z

Maudy Ayunda - Perahu Kertas tab

*************************************
* Tabbed By : M. Farhan Hidayat     *
* Country : Indonesia/Jakarta       *
* Artist : Maudy Ayunda             *
* Title : Perahu Kertas             *
* Released : 25-03-2013             *
* Tuning : Standard                 *
* Follow My Twitter : @far_dayat    *
*************************************

    F                              G
e|---------------------------------------------------------------------|
B|--------0--1---0-------0---1-----------0--1---0-------0---1----------|
G|------2------------2-----------------2------------2------------------|
D|----3--------3---3---3---3-----3---0--------0---0---0---0---0--------|
A|---------------------------------------------------------------------|
E|--1------------------------------3-----------------------------------|

    F                              G                 Am
e|--------------------------------------------------------------0-5--7-5~~|
B|--------0--1---0-------0---1-----------0--1---0-----------0-1---5-------|
G|------2------------2-----------------2--------------2---2-------5-------|
D|----3--------3---3---3---3-----3---0------------0-----2-----------------|
A|----------------------------------------------------0-------------------|
E|--1------------------------------3--------------------------------------|


~ = let ring
Tap to rate this tab
# A B C D E F G H I J K L M N O P Q R S T U V W X Y Z