Song name
# A B C D E F G H I J K L M N O P Q R S T U V W X Y Z

Maurice Jarre - The Message Theme tab

Theme of the 1976 film The Message. Here are a few of the tunes I've heard in the film and tabbed.


Main Theme (Cyclic)

e|------------------------------------------8----------10-------------------|
B|-----7-----7--7-8-----7-8-10----11-10-11------10-11------11-10-11-10------|
G|-7--7-8-----8-------------------------------------------------------------|
D|--------------------------------------------------------------------------|
A|--------------------------------------------------------------------------|
E|--------------------------------------------------------------------------|


e|---------------------------------------------------------------|
B|----7-8-----8-7-8-10-------------------------------------------|
G|--8------------------------------------------------------------|
D|---------------------------------------------------------------|
A|---------------------------------------------------------------|
E|---------------------------------------------------------------|


Whenever there is an interview with the Prophet:
Message Theme (Heavy Vibrato with every note:

e|---3-2-3--5-2--------------------------------------|
B|-3------------4-3----------------------------------|
G|---------------------------------------------------|
D|---------------------------------------------------|
A|---------------------------------------------------|
E|---------------------------------------------------|

Extended interview version:

e|---3-2-3--5-3-2---2------3-2-3--5-2-----------------------------------------|
B|-3--------------4------3------------4-3-------------------------------------|
G|----------------------------------------------------------------------------|
D|----------------------------------------------------------------------------|
A|----------------------------------------------------------------------------|
E|----------------------------------------------------------------------------|

Alternate:

e|---------------------------------------------------------------------------|
B|---8-7-------8-7-8--10--8-7---7------8-7-8--10--8-7---7--------------------|
G|-7-----8---7----------------8------7--------------------7------------------|
D|---------------------------------------------------------------------------|
A|---------------------------------------------------------------------------|
E|---------------------------------------------------------------------------|
Tap to rate this tab
# A B C D E F G H I J K L M N O P Q R S T U V W X Y Z