Guitaretab - guitar tabs
Song name
# A B C D E F G H I J K L M N O P Q R S T U V W X Y Z

Maurice Ravel - Pavane For A Dead Princess tab


e|-------------------------7-7-8----------------7--------------------------------|
B|-8-8-10---------7-7------------10-8-7-8-10-10---8-7---7-8-8-10-7---7-10-7---7--|
G|-------11-9-7-9-----9-------------------------------9------------9--------9----|
D|-------------------------------------------------------------------------------|
A|-------------------------------------------------------------------------------|
E|-------------------------------------------------------------------------------|
[ Tab from: http://www.guitaretab.com/m/maurice-ravel/102593.html ]
e|-7-----10-7----------------------------------14-15-14-15-17--------------------|
B|----10------10-8-10----8-7----------7-5---------------------15-14-15-17-15-17--|
G|-------------------9-7-----9---7-9---------------------------------------------|
D|-----------------------------9-------------------------------------------------|
A|-------------------------------------------------------------------------------|
E|-------------------------------------------------------------------------------|

e|-14----------------------------------------------------------------------------|
B|----12-10-----10-12-10-12-14--------------------7-5---5-7-5--------------------|
G|----------11-----------------11-9----9-11-9---------7-------7------------------|
D|----------------------------------12--------12---------------------------------|
A|-------------------------------------------------------------------------------|
E|-------------------------------------------------------------------------------|
Related for Pavane For A Dead Princess tab
Advertisement will be closed in 10 seconds