Guitaretab - guitar tabs
Song name
# A B C D E F G H I J K L M N O P Q R S T U V W X Y Z

Mauro Giuliani - Allegro tab

Vivaldi
Lute concerto in D
allegro

Performed by the The Manitoba Classical Guitar Duo, two excellent guitarists. they are 
Sefa (www.skendersefa.com), and Michael Daher. Skender Sefa has recorded an album that 
produced by Make Daher and released on mike's record label, GFI (Goodfellas Inc.) Masterworks.

www.winnipegclassicalguitarsociety.org


|----5-----5-----5-----5---|----5-----5-------------|
|--7---7-5---5-7---7-5---5-|--7---7-7---7-5-------5-|
|--------------------------|-----------------2------|
|--0-----------0-----------|--0-----0----------2----|
|--------0-----------0-----|--------------0-------0-|
|--------------------------|------------------------|

----5-----5-----7-----7---|----3-----3-----5-----5---|
--7---7-7---7-7---7-7---7-|--5---5-5---5-5---5-5---5-|
--------------------------|--------------------------|
--0-----0-----0-----0-----|--------------------------|
--------------------------|--4-----4-----4-----4-----|
--------------------------|--------------------------|

----2-----2-----3-----3---|----3-----5-----3-----5---|
--3---3-3---3-3---3-3---3-|--5---5-7---7-5---5-7---5-|
--------------------------|--------------------------|
--------------------------|--------------------------|
--2-----2-----2-----2-----|--0-----0-----0-----0-----|
--------------------------|--------------------------|

----3-----5-----3-----5---|--2---------5-----5---|----7-----7---------------|
--5---5-7---7-5---5-7---7-|-------7--7---7-7---7-|--8---8-8---8-5-8-5-5-8-5-|
--------------------------|----------7-----------|--0-----0-----6-----6-----|
--------------------------|--0-------------0-----|--------------------------|
--0-----0-----0-----0-----|----------------------|--------------------------|
--------------------------|----------------------|--------------------------|

--2---2-5---5-2---2-5---5-|---------5-7---7-7---7-|--------------5---5-5---5|
----3-----5-----3-----5---|-7-----------8-----8---|--5---5-5---5---7-----7--|
--------------------------|----7------0-----0-----|----6-----6--------------|
--0-----------0-----------|-0-------0-------------|--------------4-----4----|
--------4-----------4-----|----7-9----------------|--4-----4----------------|
--------------------------|-----------------------|-------------------------|

--------------3---3-3---3-|--------------2---2-2---2-|
--3---3-3---3---5-----5---|--2---2-2---2---3-----3---|
----4-----4---------------|----2-----2---------------|
--------------2-----2-----|--------------0-----0-----|
--2-----2-----------------|--0-----0-----------------|
--------------------------|--------------------------|
[ Tab from: http://www.guitaretab.com/m/mauro-giuliani/125155.html ]
--4-4-4-4-4-4-5-5-5-5-5-5-|--4-4-4-4-4-4-5-5-5-5-5-5-|--4-4-4-4-4-4-5------|
--3-3-3-3-3-3-2-2-2-2-2-2-|--3-3-3-3-3-3-2-2-2-2-2-2-|--3-3-3-3-3-3-2------|
--4-4-4-4-4-4-2-2-2-2-2-2-|--4-4-4-4-4-4-2-2-2-2-2-2-|--4-4-4-4-4-4-2------|
--2-2-2-2-2-2-2-2-2-2-2-2-|--2-2-2-2-2-2-2-2-2-2-2-2-|--2-2-2-2-2-2-2------|
--------------0-0-0-0-0-0-|--------------0-0-0-0-0-0-|--------------0------|
--------------------------|--------------------------|---------------------|

----0-----0-----0-----0---|--------------2-----2---|----2-----2-----------2-|
--2---2-0---0-2---2-0---0-|--2---------3---3-2---2-|--3---3-2---2-3--0----0-|
--------------------------|-----2------------------|------------------------|
--------2-----------2-----|------------------4-----|--------4---------------|
--0-----------0-----------|--0--0-1--1-2-----------|--2-----------2--2-2----|
--------------------------|------------------------|------------------------|

--7---7-7---7---7----------|--5---5-5---5---5---------|
----7-----7---8---10-8-7-5-|----5-----5---7---8-7-5---|
--8---8-8---8-9---9--9-----|--6---6-6---6-7---7-7---7-|
---------------------------|--------------------------|
---------------------------|--------------------------|
---------------------------|--------------------------|

--3---3-3---3---3-2-0-----|------7-----7-----7---2-6-|--7-----------5-----5-|
----3-----3---5---2---3-2-|----7-----7-----7---2-----|------------7---7-5-5-|
--4---4-4---4-6-----------|--7-----7-----6-----------|----------------------|
--------------------4---4-|--9---9-------4---4-------|------------0---------|
--------------------------|--------------------------|-------4--4-------0---|
--------------------------|--------7---7-------2---2-|--7--7----------------|

----5-----5-----5-----5---|-------------10-10-10-10-10-10-|
--7---7-5---5-7---7-7---7-|--5-------10-------------------|
--------------------------|-------------------------------|
--0-----------0-----0-----|-----7-7-----------------------|
--------0-----------------|--0-------10-9-----9--9-----9--|
--------------------------|-------------------------------|

--7-10-9-7------9-9-9-9-9-9-|-----9-------------7-7-7-7-7-7-|
-----------10-8-------------|--10---12-10-------------------|
--0------0------------------|-------------12-11-------------|
----------------------------|-------------------0---0-0---0-|
----------------7---7-7---7-|--9-------9--------------------|
----------------------------|-------------------------------|

----7----------5-5-5-5-5-5-|--2-5-3-2-----5-5-5-5-5-5-|
--8---10-8-7---------------|----------5-3-------------|
-------------9-------------|--------------------------|
---------------------------|--0-----0-----------------|
--7------7-----4---4-4---4-|--------------4---4-4---4-|
---------------------------|--------------------------|

--2-5-3-2-------3-2-------|----5-----5-----------5---|--2-3-5-2-3----------||
----------5-3-5-----5-3-2-|------7-5---5-7-5-7-5---5-|------------5-3------||
--------------2-----------|--7-----------------------|--------2------------||
--0-----0-----------------|--0---0-------0---0-------|--0---0-------0------||
--------------------0-----|--------0---0-------0---0-|------------0--------||
--------------------------|--------------------------|---------------------||
Related for Allegro tab
Advertisement will be closed in 10 seconds