Song name
# A B C D E F G H I J K L M N O P Q R S T U V W X Y Z

Mauro Giuliani - Etude - Moderato In D tab

  Mauro Giuliani
  Etude "Moderato in D"
  Time Signature: 2/4
  Transcribed by Tarek Yazbek (p.122)
  E-mail: yazbek999@hotmail.com


 |-2--0-|
 |------|
 |*-----|
 |*-----|
 |------|
 |------|
  mf
 
 |----------0--2--3--0--2-|----------0--2-----0--2-|-3--0--5--3--2-----5--2-|
 |-3--2--3----------------|-3--2--3--------3-------|----------------3-------|
 |------------------------|------------------------|------------------------|
 |-0-----------0----------|-0-----------0----------|-------------0----------|
 |-------------------0----|------------------------|-0----------------------|
 |------------------------|------------------------|------------------------|


 |-0--------------3--2--0-|----------0--2--3--0--2-|----------0--2--4--5--2-|
 |----3--2--0-------------|-3--2--3----------------|-3--2--3----------------|
 |-------------2----------|------------------------|------------------------|
 |------------------------|-0-----------0----------|-0-----------0----------|
 |-0-----------0----------|-------------------0----|------------------------|
 |------------------------|------------------------|------------------------|
  mp

 |-0--5--2--------0-------|----0--0--0--0--0--0--0-|-0--0--0--0--0--0--0--0-|
 |----------3--2-----3--0-|------------------------|------------------------|
 |------------------------|-2----------------------|------------------------|
 |-------0----------------|-------------0----------|------------------------|
 |-0----------------------|-0-----------------2----|-3-----0----------------|
 |-------------0-----0----|------------------------|-------------4-----0----|
                          espr.
                                                     II_____________
 |-0--0--0--0--0--0--0--0-|-0--0--0--0--0--0--0--0-|-------5-----5---------||
 |------------------------|------------------------|-2-----2-----2---------||
 |------------------------|------------------------|-2-----2-----2--------*||
 |-------------0----------|------------------------|----------------------*||
 |-0-----3-----------2----|-3-----0----------------|-0-----0-----0---------||
 |------------------------|-------------4-----0----|-----------------------||


 ||------|
 ||----0-|
 ||*2----|
 ||*-----|
 ||------|
 ||------|
   p
 
 |-------------0-----2----|-3-----------0-----3----|-2-----------2----------|
 |-2-----3----------------|-------4----------------|-------3-----------3----|
 |----2-----2-----2-----2-|----2-----2-----2-----2-|----2-----2-----2-----2-|
 |------------------------|------------------------|------------------------|
 |-0----------------------|-0----------------------|-0----------------------|
 |------------------------|------------------------|------------------------|


 |-------0----------------|----------------2--0----|------------------------|
 |-2--3-----2-----0--2--3-|-0--3--2--0-----------3-|-0--3--2--0-----0--2--3-|
 |-------------2----------|-------------2----------|-------------2----------|
 |------------------------|------------------------|------------------------|
 |-0----------------------|------------------------|------------------------|
 |------------------------|-3-----------2----------|-3-----------2----------|
   cresc.                                            decresc.

 |----3--2--0-------------|----5--5--5--5--5--5--5-|-5--5--5--5--5--5--5--5-|
 |-0-----------3-----2----|-3----------------------|------------------------|
 |----------------2-----2-|-------------0----------|------------------------|
 |------------------------|-0-----------------2----|-4----------------------|
 |-------------0-----0----|------------------------|-------5-----4-----0----|
 |-3----------------------|------------------------|------------------------|
                           mf
 
 |-5--5--5--5--5--5--5--5-|-5--5--5--5--5--5--5----|-------2-----2---------||
 |------------------------|------------------------|-------3-----3---------||
 |------------------------|------------------------|-------2-----2--------*||
 |-------4-----5-----2----|-4-----0----------------|-0-----0-----0--------*||
 |-5----------------------|-------------4-----0----|-----------------------||
 |------------------------|------------------------|-----------------------||
                                        rall.
Tap to rate this tab
# A B C D E F G H I J K L M N O P Q R S T U V W X Y Z