Song name
# A B C D E F G H I J K L M N O P Q R S T U V W X Y Z

Mauro Giuliani - Etude - Andantino In Am tab

                                             Mauro Giuliani
                                         Etude "Andantino in Am"
                                       Transcribed by Tarek Yazbek
                                      E-mail: yazbek999@hotmail.com

 Time Signature: 2/4

 |------------------------|------------------------|----0-----------0-------|
 |------------------------|----------------1-------|------------------------|
 |------------------------|----2-------------------|------------------------|
 |------------------------|----------------------0-|-2-----2--1--2-----2----|
 |------------------------|-0-----0--2--3-----3----|----------------------3-|
 |---------------------0--|------------------------|------------------------|

 |------------------------|------------------------|------------------------|
 |----------------1-------|----0-------------------|----------------1-------|
 |----2-------------------|----------------1-------|----2-------------------|
 |----------------------0-|------------------------|----------------------0-|
 |-0-----0--2--3-----3----|-2-----2--0-------------|-0-----0--2--3-----3----|
 |------------------------|-------------4-----4--0-|------------------------|

 |----0-----------0-------|----3-------------------|------------------------|
 |------------------------|----------------0-------|------------------------|
 |------------------------|-0-----0----------------|------------------------|
 |-2-----2--1--2-----2--4-|-----------2----------1-|-2--------------------2-|
 |------------------------|--------------2----2----|----------2-------------|
 |------------------------|------------------------|----0--3-----0----------|

 |------------------------|-0-----0-----0-----0----|------------------------|
 |----------0--1-----1--3-|----------4-----------1-|----------0--1-----1----|
 |-2-----2----------------|------------------------|-2-----2--------------2-|
 |------------------------|----2-----------2-------|------------------------|
 |----0-----------3-------|------------------------|----0-----------3-------|
 |------------------------|------------------------|------------------------|

 |------------------------|------------------------|-0-----0-----0-----0--2-|
 |-0-----0----------------|----------0--1-----1--3-|----------4-------------|
 |----------2--1-----1----|-2-----2----------------|------------------------|
 |----------------------2-|------------------------|----2-----------2-------|
 |----2-------------------|----0-----------3-------|------------------------|
 |----------------4-------|------------------------|------------------------|

 |-3-----3--0-------------|-0----------------------|----------------0-------|
 |-------------0-----0--4-|----------0-------------|----2-------------------|
 |----0-------------------|-------0----------------|------------------------|
 |------------------------|----2--------------2--0-|----------0--2-----2--3-|
 |----------------2-------|------------------------|-4-----4----------------|
 |------------------------|-------------0----------|------------------------|

 |----3-----------1-------|------------------------|------------------------|
 |------------------------|----3-----------0-------|------------------------|
 |-0----------------------|------------------------|----1-------------------|
 |-------3--2--3-----3--2-|-0-----0----------------|----------------2-------|
 |------------------------|----------3--2-----2--0-|-------------------2--3-|
 |------------------------|------------------------|-4-----4--1--0----------|

 |----1-------------------|----0-------------------|------------------------|
 |----------------3-------|----------------1-------|----0-----------------0-|
 |------------------------|------------------------|----------------1--2----|
 |-0-----0----------------|------------------------|-0-----2--3--2----------|
 |----------3--2-----0--2-|-3-----3--2--0-----3--0-|------------------------|
 |------------------------|------------------------|------------------------|

 |-------------------0----|-------------0-----0--1-|-3-----1--0--1-----1--0-|
 |----------------------3-|-2-----2--3-------------|------------------------|
 |-2----------------------|------------------------|----0-------------------|
 |----------2-------------|----------------2-------|----------------3-------|
 |----0--3-----0----------|----4-------------------|------------------------|
 |------------------------|------------------------|------------------------|

 |------------------------|------------------------|------------------------|
 |-3-----3--1--0-----0----|-------------------0--1-|-3-----3--1--0--------0-|
 |----------------------2-|-1-----1--2-------------|-------------------2----|
 |----0-------------------|-------------2----------|------------------------|
 |----------------2-------|------------------------|----2-------------------|
 |------------------------|----4-----------0-------|----------------0-------|

 |------------------------|------------------------|-----------------------||
 |-1-----1--0-------------|-0-----1--3-----------0-|-----------------------||
 |-------------2-----1--2-|-------------1-----2----|-2---------------------||
 |------------------------|----0-------------------|----------2------------||
 |----0-------------------|------------------------|----0--3-----0---------||
 |----------------1-------|----------------0-------|-----------------------||
Tap to rate this tab
# A B C D E F G H I J K L M N O P Q R S T U V W X Y Z