Song name
# A B C D E F G H I J K L M N O P Q R S T U V W X Y Z

Mauro Giuliani - Etude - Andante In G tab

                                             Mauro Giuliani
                                         Etude "Andante in G"
                                      Transcribed by Tarek Yazbek
                                      E-mail:  yazbek@hotmail.com

 Time Signature: 2/4

 |------------------------|
 |-------------------0--1-|
 |------------------------|
 |------------------------|
 |------------------------|
 |------------------------|

 |-------------------0----|------------------------|------------------------|
 |-3--------------------3-|-1-----------------3--1-|-0----------------------|
 |------------------------|------------------------|-------0-----------2----|
 |------------------------|------------------------|-------------2----------|
 |-------2--0-------------|-------0----------------|-------------3----------|
 |-------------3----------|----------3--2----------|-3----------------------|

 |------------------------|-------------------0----|------------------------|
 |-------0-----------0--1-|-3--------------0-----3-|-1-----------------3--1-|
 |----0-----0--2----------|------------------------|----------------2-------|
 |-0-----------4----------|------------------------|------------------------|
 |-------------5----------|----1--2--0-------------|-------0----------------|
 |------------------------|-------------4----------|----4-----3--2----------|

 |----3--0----------------|-------------------3----|-0-----0-----------0----|
 |-0--------1-----3--1----|------------------------|-------------1----------|
 |-------------0--------2-|-0----------------------|----0-----0-----0-----0-|
 |-------------0-----0----|----0-----0-----0-----0-|-------2-----------2----|
 |-------3----------------|-------2-----------2----|-3-----------3----------|
 |-3----------------------|-3-----------3----------|------------------------|

 |------------------------|------------------------|-------------------3----|
 |-3----------------------|-------------3-----1----|-0----------------------|
 |-------------------0----|-2-----2----------------|-------------0----------|
 |----0-----0-----0-----0-|----0-----0-----0-----0-|----0-----0-----0-----0-|
 |-------2-----------2----|-------0-----------0----|-------2-----------2----|
 |-3-----------3----------|-2-----------2----------|-3-----------3----------|

 |-0-----0-----------0----|------------------------|------------------------|
 |-------------1----------|-3--------------------0-|----3-----1-----0-------|
 |----0-----0-----0-----0-|-------------------0----|----------------------2-|
 |-------2-----------2----|----0-----0-----0-------|-------------0-----0----|
 |-3-----------3----------|-------2----------------|-2-----3----------------|
 |------------------------|-3-----------3----------|------------------------|

 |------------------------|------------------------|------------------------|
 |----------------3--1--0-|----------------1--0----|----------------0-------|
 |----0-------------------|-2--------------------2-|-0-----------------2--0-|
 |-------0----------------|----3--4--2--1----------|----4--2--0-------------|
 |----------2-------------|------------------------|-------------4----------|
 |-3-----------3----------|------------------------|------------------------|

   II________               II________               II________
 |----------2--0--3-----0-|----------2--0-----0--3-|-2--------2--5--3--0--2-|
 |-------3-----------2----|-3-----3--------2-------|-------3----------------|
 |----2-------------------|----2-------------------|----2-------------------|
 |-4----------------------|------------------------|------------------------|
 |-5-----------------0----|-5-----------0----------|-5-----------0----------|
 |-------------3----------|------------------------|------------------------|

   II________               II________
 |----------2--0-----0--3-|-2--------2--5--3--0----|------------------------|
 |-3-----3--------2-------|-------3--------------2-|-3-----------------0--1-|
 |----2-------------------|----2-------------------|-------------0--2-------|
 |------------------------|------------------------|----0--2--4-------------|
 |-5-----------0----------|-5-----------0----------|-5----------------------|
 |------------------------|------------------------|------------------------|

 |-------------------0----|------------------------|------------------------|
 |-3--------------------3-|-1-----------------3--1-|----0-----------------1-|
 |------------------------|------------------------|----------0--------2----|
 |------------------------|------------------------|----------------2-------|
 |-------2--0-------------|-------0----------------|-------2-----3----------|
 |-------------3----------|----------3--2----------|-3----------------------|

 |------------------------|-------------------0----|------------------------|
 |-------0-----------0--1-|-3--------------0-----3-|-1--------------2--3--1-|
 |----0-----0--2----------|------------------------|------------------------|
 |-0-----------4----------|------------------------|------------------------|
 |-------------5----------|----1--2--0-------------|-------0----------------|
 |------------------------|-------------4----------|----4-----3--2----------|

 |----3--0----------------|------------------------|------------------------|
 |-0--------1--0--3--1----|------------------------|-0-----------3--1-----0-|
 |----------------------2-|-0-----------2----------|-------------------2----|
 |-------------0-----0----|----0-----0-----0-----0-|----0-----0-------------|
 |-------3----------------|-------2-----------0----|-------2----------------|
 |-3----------------------|-3-----------2----------|-3-----------2----------|

 |------------------------|------------------------|-------3-----3-----3----|
 |------------------------|-0-----------3--1-----0-|-------0-----0-----0----|
 |-0-----------2----------|-------------------2----|-0-----0-----0-----0----|
 |----0-----0-----0-----0-|----0-----0-------------|-------------0----------|
 |-------2-----------2----|-------2----------------|-------------------2----|
 |-3-----------2----------|-3-----------2----------|-3----------------------|

 |-3---------------------||
 |-0---------------------||
 |-0---------------------||
 |-0---------------------||
 |-2---------------------||
 |-3---------------------||
Tap to rate this tab
# A B C D E F G H I J K L M N O P Q R S T U V W X Y Z