Song name
# A B C D E F G H I J K L M N O P Q R S T U V W X Y Z

Mauro Giuliani - Etude - Allegretto In D tab

Mauro Giuliani - Etude - Allegro in D

Transcribed by Tarek Yazbek - email: yazbek999@hotmail.com


 Time Signature: 6/8

  
 |-5--3-|-2h3p2--0--2--3-----0-|------------------|------------2p0-------|
 |------|-----------------0----|-3--2--0-----0--2-|-5p3--2--3-------4--5-|
 |------|----------------------|----------2-------|----------------------|
 |------|-----0----------------|------------------|---0------------------|
 |------|----------------------|-0----------------|--------------4-------|
 |------|--------------3-------|------------------|----------------------|
   mf

 |-2--3--2--0--5--3-|-2h3p2--0--2--3-----0-|------------------|
 |-3--------2-------|-----------------0----|-3--2-----------2-|
 |------------------|----------------------|-------4--2--4----|
 |-0----------------|-----0----------------|------------------|
 |----------0-------|----------------------|-0----------------|
 |------------------|--------------3-------|------------------|


 |-------2--5--3----|-------------3--2-|-2p0-----------2--0-|
 |-3--5-----------5-|-3----------------|------4--5----------|
 |------------------|----2-------------|--------------------|
 |-0----------------|-0-----4--0-------|--------------------|
 |----------0-------|------------------|---4--------0-------|
 |------------------|------------------|--------------------|

                                          II_____
 |--------------------|-------------------|----2--5-----3--2-|
 |-5p3--2--3-----5--3-|-3p2-------------2-|-3----------------|
 |--------------------|------4--2--2--4---|------------------|
 |---0----------------|-------------------|------------------|
 |------------0-------|------------0------|----------0-------|
 |--------------------|---0---------------|-2----------------|
  p

 |-2p0-----------2--0-|------------5--2----|----0-------------|
 |------4--5----------|-5p3--2--3--------3-|-2--------0--3----|
 |--------------------|--------------------|-------2--------1-|
 |--------------------|---0----------------|------------------|
 |---4--------0-------|--------------------|------------------|
 |--------------------|--------------------|-0--------0-------|


 |-------0--------0-|-------0--------0-|-------0----------|
 |----2-----3-------|-2--------3-------|-2-----------3----|
 |-2-----------4----|----2--------4----|----2-----------4-|
 |------------------|------------------|----------0-------|
 |-0----------------|-0----------------|-0----------------|
 |----------0-------|----------0-------|------------------|


 |----------0-------|-------0--------0-|-------0--------0-|
 |-------2-----3----|----2-----3-------|-2--------3-------|
 |----2-----------4-|-2-----------4----|----2--------4----|
 |-2----------------|------------------|------------------|
 |------------------|-0----------------|-0----------------|
 |----------0-------|----------0-------|----------0-------|

   V______
 |-------5--------2-|----0-----0-------|------------------|
 |----5--------3----|-4-----2-----3----|-------------2--0-|
 |-6--------4-------|----------------4-|-2----------------|
 |----------0-------|-2----------------|------------------|
 |------------------|------------------|----0--4--4-------|
 |-5----------------|----------0-------|------------------|
                      mf

 |-------------3--2-|-0----------------|----3--2-----7--5-|
 |----5--3--2-------|-2-----------5--3-|-2--------5-------|
 |-2----------------|------------------|------------------|
 |------------------|------------------|------------------|
 |------------------|----4--4--4-------|------------------|
 |------------------|------------------|------------------|
                      ff

 |-3-----------3--2-|-0----------------|----0--------0----|
 |-5----------------|-2----------------|-2-----3--2-----3-|
 |------------------|-------------5--3-|-0--------0-------|
 |------------------|------------------|------------------|
 |----0--0--0-------|----0--0--0-------|-0--------0-------|
 |------------------|------------------|------------------|
                      p

 |---------5--3-|-2h3p2--0--2--3-----0-|------------------|
 |-2------------|-----------------0----|-3--2-----------2-|
 |-0------------|----------------------|-------4--2--4----|
 |-2------------|-----0----------------|------------------|
 |-0------------|----------------------|-0----------------|
 |--------------|--------------3-------|------------------|


 |------------2p0-------|-2--3--2--0--5--3-|-2h3p2--0--2--3-----0-|
 |-5p3--2--3-------4--5-|-3--------2-------|-----------------0----|
 |----------------------|------------------|----------------------|
 |---0------------------|-0----------------|-----0----------------|
 |--------------4-------|----------4-------|----------------------|
 |----------------------|------------------|--------------3-------|


 |------------------|----0--2--5--3--0-|----5--2-----2----|
 |-3--2-----------2-|-3----------------|-3--------3-----3-|
 |-------4--2--4----|------------------|------------------|
 |------------------|-0----------------|-0----------------|
 |-0----------------|----------0-------|------------------|
 |------------------|------------------|------------------|
                        accel.

 |------------------|-----------2------|-----------------||
 |----3-------------|-----------3------|-3---------------||
 |-2-----2-----2----|-----------2------|-2---------------||
 |----------4-----4-|-0----------------|-4---------------||
 |------------------|------------------|-5---------------||
 |------------------|------------------|-----------------||

 
Tap to rate this tab
 
# A B C D E F G H I J K L M N O P Q R S T U V W X Y Z