Song name
# A B C D E F G H I J K L M N O P Q R S T U V W X Y Z

Mauro Giuliani - Capriccio In Am tab

                        ********************************
                        **                            **
                        ** MAURO GIULIANI - CAPRICCIO **
                        **                            ** 
                        ********************************


                       ********************************* 
                       * Tab by Vincenzo della Vecchia * 
                       *********************************
                       *                               *
                       *      fisioterap@inwind.it     * 
                       *                               *
                       *********************************


This piece has a beautiful melody and with some practice 
won't be difficult to play. Remember to select Courier
font to view the tab in the best way.

MAURO GIULIANI (BISCEGLIE 1781 - NAPLES 1829)

Tuning: Standard EBGDAE
Signature: A minor
Time: 4/4

E|---0--0--0--0--0--0--0--0-|--0--0--0--0--0--0--0--0-|
B|-----4--1--0--------------|----4--1--0--------------|
G|--------------2-----------|-------------2-----------|
D|--------------------------|-------------------------|
A|-0------------------3--2--|-0----------------3--2---|
E|-----------------0--------|---------------0---------|
       4  1     2     3  2     


E|--0--0--0--0--0--0--0--0-|--0--0--0--0--0--0--0--0-|
B|----4--3--1--0-----------|----4--3--1--0-----------|
G|-------------------------|-------------------------|
D|-------------------0-----|-------------------------|
A|----------------------3--|-2-----------------------|
E|-4--------------0--------|----------------0--4--0--|  
   3  4  2  1           2    1  4  3  1        3  


E|--0--0--0--0--0--0--0--0-|--0--0--0--0--0--0--0--0-|
B|----4--1--0--------------|----4--1--0--------------|
G|-------------2-----------|-------------2-----------|
D|-------------------------|-------------------------|
A|-0-----------------3--2--|-0-----------------3--2--|
E|----------------0--------|----------------0--------|



E|-------1--0--------------|--------1--0--------------|
B|----3--------3-----------|-----3--------3-----------|
G|--0--0--0--0--0--0--0--0-|---0--0--0--0--0--0--0--0-|
D|-------------------------|--------------------------|
A|-2-----------------2-----|--2-----------------2-----|
E|----------------3-----3--|-----------------3-----3--|
   2  4  1     4  3  2  3        


E|---0---3--1--0-----------|---0---3--1--0------------|
B|-------------------------|--------------------------|
G|--0--0--0--0--0--0--0--0-|--0--0--0--0--0--0--0--0--|
D|-------------------2--0--|-------------------2--0---|
A|-3-----------------------|-3------------------------|
E|----------------3--------|----------------3---------|
   3     4  1     3  2         


E|----0--5--3--1-----------|--------3--1--0-----------|
B|-------------------------|-----3--------------------|
G|--2--2--2--2--2--2--2--2-|---0--0--0--0--0--0--0--0-|
D|-------------------0-----|--------------------------|
A|-4--------------4-----3--|-2---------------2--3--2--|
E|-------------------------|--------------------------|
   31    4  22 1  4     3    2   4  4  1     2  3  2    

 ..........1/2CI
E|-------1--0--------------|-------0------------------|
B|----1--------3-----------|----0----3---1------------|
G|-------------------------|--------------------------|
D|--3--3--3--3--3--3--3--3-|--2--2--2--2--2--2--2--2--|
A|-0--------------1--2--0--|-------------------0------|
E|-------------------------|-4--------------4-----3---|
    3 1  1     4  1  2       42      3   1  4     3 

CI..........................
E|-------------------------|----------0--4-0-7-4-0-7-4-0-|
B|-------------------------|-------0---0-----------------|
G|----2-----2----2------2--|----1---1--------------------|
D|---3-2---3-2--1-1----1-1-|---2-2-----------------------|
A|-------------------------|-----------------------------|
E|-1-----1----1------1-----|-0---------------------------|
   1 32         12             21        1   4


E|----------0--5-0-8-5-0-8-5-0-|---------0--4-0-7-4-0-7-4-0-|
B|-------1---1-----------------|------0---0-----------------|
G|----2---2--------------------|---1---1--------------------|
D|---2-2-----------------------|--2-2-----------------------|
A|-----------------------------|----------------------------|
E|-0---------------------------|-0--------------------------|
     2 3 1     1   4                 


E|--------0--5-0-8-5-0-8-5-0-|-----0---0---0---0-|
B|------1--1-----------------|----0---2---0---2--|
G|---2---2-------------------|---1---2---1---2---|
D|--2-2----------------------|-------------------|
A|---------------------------|-------------------|
E|-0-------------------------|-0----0---0---0----|
                                 1   12 


E|----0----0----0-----0-|-------------------------|
B|---0----0----2-----3--|-------------------------|
G|--1----1----2-----1---|--2--2--2--2--2--2--2--2-|
D|------0---------------|-------------------------|
A|-----------3----2-----|-0-----3--2--0-----3--2--|
E|-0--------------------|----0-----------0--------|
    1        312  2 14     2    1  3        1  3                           


E|--0--0--0--0--0--0--0--0-|-------------------------|
B|----4--3--1--0-----------|--3--3--3--3--3--3--3--3-|
G|----------------2--1--2--|-------------------------|
D|-------------------------|-0-----3--2--0-----3--2--|
A|-0-----------------------|---0-------------0-------|
E|-------------------------|-------------------------|
      4  3  1     2  1  2     3    2  1        2  1         


E|-------1--0-----1--0-----|-------1--0--------1--0--|
B|----3--------3--------3--|----1-----------1--------|
G|--2--2--2--2--2--2--2--2-|--2--2--2--2--2--2--2--2-|
D|-0-----------------------|-------------------------|
A|-------------------------|-------------------------|
E|-------------------------|-0-----------0-----------|
    2 3  1                    3 1  2                 


E|-------1--0--------1--0--|--0--0--0--0--0--0--0--0-|
B|----0-----------0--------|----4-1---------4--3--0--|
G|--2--2--2--2--1--1--1--1-|----------2--------------|
D|-------------------------|-------------------------|
A|-------------------------|-0-----------------------|
E|-0-----------0-----------|-------------0-----------|
    2    1      1    2          4 1   2     4  3 


E|--0--0--0--0--0--0--0--0-|--0--0--0--0--0--0--0--0-|
B|----4--1--------4--3--0--|----4--1--0--------------|
G|----------2--------------|-------------2-----------|
D|-------------------------|---------------2---------|
A|-0--------3--------------|-0-----------------3--2--|
E|-------------0--------4--|-------------------------|
      4  1  2     4  3  4       4  1  0  3 2   4  2
            3

E|--0--0--0--0--0--0--0--0-|-------------------------|-----0--|-----||
B|----4--1--0--------------|-------------------------|-----1--|-1---||
G|-------------2-----------|--2--2--2--2--2--2--2--2-|-----2--|-2---||
D|----------------2--------|-------------------------|--------|-2---||
A|-0-----------------3--2--|-0-----3--2--0-----3--2--|-0---0--|-0---||
E|-------------------------|----0-----------0--------|--------|-----||
                              2    1  3        1  3        1    1 
                                                           2    3
                                                                2


***************************************************
* Vincenzo's Note.                                *
* I've omitted RHF but if anyone wants wants it,  *
* they can mail me at the address above and I can *
* add it to the tab.                              *
*                                                 *
***************************************************
Tap to rate this tab
# A B C D E F G H I J K L M N O P Q R S T U V W X Y Z