Song name
# A B C D E F G H I J K L M N O P Q R S T U V W X Y Z

Mauro Giuliani - Andantino In C tab

Mauro Giuliani (1781 - 1829)   "Andantino"

I searched all over for a tab to this and found nada, so I decided to tab it
myself.  This is my first tab, so be gentle with me.

Tuning: EBGDAE
Time: 3/8
Tabbed by Robert Quiggle - corrections welcome robert_quiggle@yahoo.com
| = the beat (of course)
====== is a sustain, but represents a rest in the original


    |       |       |         |       |       |         |        |       |
E|-------------------------|-------------------------|--0--------1-------0-----|
B|--1---------------1------|--3---------------3------|--1--------3-------1-----|
G|-------------------------|--0---------------0------|-------------------------|
D|--2---------------2------|-------------------------|-------------------------|
A|-------------------------|-------------------------|-------------------------|
E|-------------------------|-------------------------|-------------------------|

    |       |       |         |       |       |         |        |       |
E|-------------------------|--1---------------3------|--0----------------------|
B|--3======----------------|-------------------------|--1----------------1-----|
G|--0======----------------|--2---------------0------|-------------------2-----|
D|-------------------------|-------------------------|-------------------------|
A|-------------------------|-------------------------|-------------------------|
E|-------------------------|-------------------------|-------------------------|

    |       |       |         |       |       |         |        |       |
E|-------------------------|-------------------------|-----------0-------------|
B|--3---------------0------|--1======----------------|--3--------1-------3=====|
G|------------------0------|-------------------------|--0----------------0=====|
D|--3----------------------|--2======----------------|-------------------------|
A|-------------------------|-------------------------|-------------------------|
E|-------------------------|-------------------------|-------------------------|

    |       |       |         |       |       |         |        |       |
E|----------1-------0------|-------------------------|--0----------------------|
B|--3---------------1------|--3======----------------|--1----------------3-----|
G|--0----------------------|--0======----------------|-------------------1-----|
D|-------------------------|-------------------------|-------------------------|
A|-------------------------|-------------------------|-------------------------|
E|-------------------------|-------------------------|-------------------------|

    |       |       |         |       |       |         |        |       |
E|-------------------------|-------------------------|------------------------||
B|--1---------------3------|--1---------------0------|--1======---------------||
G|--2----------------------|--0---------------0------|------------------------||
D|------------------3------|-------------------------|--2======---------------||
A|-------------------------|-------------------------|------------------------||
E|-------------------------|-------------------------|------------------------||

    |       |       |         |       |       |         |        |       |
E|-------------------------|-------------------------|--0--------1-------0-----|
B|--1---------------1------|--3---------------3------|-------------------------|
G|------0---0---0-------0--|------0---0---0-------0--|------0--------0-------0-|
D|--2---------------2------|-------------------------|-----------0-------------|
A|-------------------------|-------------------------|--3----------------3-----|
E|-------------------------|--3---------------3------|-------------------------|

    |       |       |         |       |       |         |        |       |
E|-------------------------|--1---------------3------|--0----------------------|
B|--3----------------------|-------------------------|-------------------1-----|
G|------0---0---0---0------|------0---0---0-------0--|------0----0---0------0--|
D|-------------------------|--0----------------------|-------------------2-----|
A|-------------------------|------------------2------|--3----------------------|
E|--3----------------------|-------------------------|-------------------------|

    |       |       |         |       |       |         |        |       |
E|--1----------------------|------------------------||-------------------0-----|
B|------------------0------|------1-----------------||--3----------------------|
G|------0---0---0-------0--|----------0-------------||------0----0---0------0--|
D|--0---------------0------|--------------2---------||-------------------------|
A|-------------------------|--3---------------3-----||--2----------------3-----|
E|-------------------------|------------------------||-------------------------|

    |       |       |         |       |       |         |        |       |
E|-------------------------|----------1-------0------|-------------------------|
B|--3----------------------|--3----------------------|--3----------------1--3--|
G|------0---0---0---0---0--|------0-------0-------0--|------0----2---4---------|
D|-------------------------|----------0--------------|-------------------------|
A|--2----------------------|--2---------------3------|--2----------------------|
E|-------------------------|-------------------------|-------------------------|

    |       |       |         |       |       |         |        |       |
E|--0----------------------|-------------------------|-------------------------|
B|------------------3------|--1---------------3------|--1----------------0-----|
G|------0---0---0-------1--|------2---2---2----------|-------------------------|
D|-------------------------|----------------------3--|------2----2----2-----0--|
A|--3---------------2------|--0----------------------|-------------------------|
E|-------------------------|------------------1------|--3----------------3-----|

    |       |       |
E|-------------------------||
B|--------------1----------||
G|----------0--------------||
D|------2------------------||
A|--3---------------3------||
E|-------------------------||       07 DEC 2004
Tap to rate this tab
 
# A B C D E F G H I J K L M N O P Q R S T U V W X Y Z