Song name
# A B C D E F G H I J K L M N O P Q R S T U V W X Y Z

Mavericks - Dance The Night Away tab

Help us improve GuitareTab! Take a short survey!
Highlighted       Show chord diagrams
E              B7         E    B7
    Here comes my happiness again
   E              B7                   E    B7
    Right back to where it should have been
   E                B7            E    B7
    Cause now she’s gone and I am free
  E               B7            E    B7
    And she can’t do a thing to me


   E           B7              E    B7
    Just wanna dance the night away
   E         B7            E    B7
    With senoritas who can sway
   E            B7               E      B7
    Right now tomorrow’s lookin’ bright
   E              B7            E      B7
    Just like the sunny mornin’ light

    And if you should see her
    Please let her know that I’m well
    As you can tell
    And if she should tell you
    That she wants me back
    Tell her no
    I gotta go

    Just wanna dance the night away
    With senoritas who can sway
    Right now tomorrow’s lookin’ bright
    Just like the sunny mornin’ light

    Guitar solo:
    e||----------------------------------------------------------||
    B||----------------------------------------------------------||
    G||-----------------------1---------1---2-------1--2---1-----||
    D||--2----------4-------------2--4----------4-------------2--||
    A||------2-----------2---------------------------------------||
    E||----------------------------------------------------------||

    e||------------------------------------------||
    B||-------------------------------0-------0--||
    G||----------------2--1----------------------||
    D||---------1--4---------4--2----------------||
    A||--4---2---------------------------2-------||
    E||------------------------------------------||

    And if you should see her
    Please let her know that I’m well
    As you can tell
    And if she should tell you
    That she wants me back
    Tell her no
    I gotta go

    Just wanna dance the night away
    With senoritas who can sway
    Right now tomorrow’s lookin’ bright
    Just like the sunny mornin’ light

    Just wanna dance the night away
    With senoritas who can sway
    Right now tomorrow’s lookin’ bright
    Just like the sunny mornin’ light

    Ending: Repeat E and B7


Related for Dance The Night Away tab