Song name
# A B C D E F G H I J K L M N O P Q R S T U V W X Y Z

Mavericks - Dance The Night Away tab

     Q.     H        E     Q.     H        E     Q.     Q    E.  E.   
E||---------------------|---------------------|----------------------|
B||---------------------|---------------------|----------------------|
G||---------------------|---------------------|--1---------------1---|
D||--2------------------|--4------------------|---------2----4-------|
A||---------2--------L--|---------2--------L--|----------------------|
E||---------------------|---------------------|----------------------|

                                                  |----3----|            
  Q.     H        E     Q.     H        E     E.  Q    Q    Q    E.  E   
---------------------|---------------------|----------------------------|
---------------------|---------------------|----------------------------|
--2------------------|--1------------------|----------------2----1------|
---------4--------L--|---------2-----------|------1----4-------------4--|
---------------------|------------------4--|--2-------------------------|
---------------------|---------------------|----------------------------|


  Q.     H        E      Q    H        Q      
----------------------|---------------------||
---------0------------|-------0-------------||
----------------------|---------------------||
--2---------------2s--|--1------------------||
----------------------|---------------------||
----------------------|---------------------||


Duration Legend
---------------
W - whole
H - half
Q - quarter
E - 8th
S - 16th
T - 32nd
X - 64th
. - note dotted
|-n-|  - n-tuplets


Tablature Legend
----------------
L - tied note
x - dead note
g - grace note
(n) - ghost note
> - accentuded note
NH - natural harmonic
AH - artificial harmonic
TH - tapped harmonic
SH - semi harmonic
PH - pitch harmonic
h - hammer on
p - pull off
b - bend
br - bendRelease
pb - preBend
pbr - preBendRelease
brb - bendReleaseBend
\n/ - tremolo bar dip
\n - tremolo bar dive
-/n - tremolo bar Release up
/n\ - tremolo bar inverted dip
/n - tremolo bar return
-\n - tremolo bar Release down
S - shift slide
s - legato slide
/ -  slide into from below or out of upwards
\ -  slide into from above or out of downwards
~ - vibrato
W - wide vibrato
tr - trill
TP - tremolo picking
T - tapping
S - slap
P - pop
< - fade in
^ - brush up
v - brush down
Tap to rate this tab
 
# A B C D E F G H I J K L M N O P Q R S T U V W X Y Z