Song name
# A B C D E F G H I J K L M N O P Q R S T U V W X Y Z

Mavericks - What A Crying Shame tab

play this 4 times for the intro.
 G                    D         C
E--------------------------------------------------------------------------|
B--------------------------------------------------------------------------|
G--------------------------------------------------------------------------|
D------------------------------------0-------------------------------------|
A---------5---7---5-----3---2---3------------------------------------------|
E-3--3/7-------------------------------------------------------------------|

G       D          C
Wasnt i good to you?
G       D      C
Didnt i show it?
G        D           C
and if i ever hurt you
G       D    C
i didnt know it.

the chords stay like that all the way through the verses and choruses.

the lead section goes like:
  A                    C                     A
E-0--------------------0---------------------0-----------------------------|
B-2--------------------1---------------------2-----------------------------|
G-2--------------------0---------------------2-----------------------------|
D-2--------------------2---------------------2-----------------------------|
A-0-0-0-0-2-2-2-2/4----3-3-3-3-5-5-5-5/7-----0-0-0-0-2-2-2-2/4-------------|
E--------------------------------------------------------------------------|
  C          D
E--------------------------------------------------------------------------|
B--------------------------------------------------------------------------|
G--------------------------------------------------------------------------|
D--------------------------------------------------------------------------|
A-3--2--0-----5--3--2------------------------------------------------------|
E----------3----------3----------------------------------------------------|

after this it goes back into the normal chords: G, D and C.
Tap to rate this tab
# A B C D E F G H I J K L M N O P Q R S T U V W X Y Z