Song name
# A B C D E F G H I J K L M N O P Q R S T U V W X Y Z

Mavericks - Ive Got This Feeling tab

#----------------------------------PLEASE NOTE---------------------------------#
#This file is the author's own work and represents their interpretation of the #
#song. You may only use this file for private study, scholarship, or research. #
#------------------------------------------------------------------------------#
I'VE GOT THIS FEELING
recorded by The Mavericks
(From the 1998 Album Words by Raul Malo & Jamie 
I (E A D G B E) - 'Untitled'
This is the lead for the verse

  Gtr I
|-----2-2S6-4--------------|
|---3-------5--------------|
|-4---------4--------------|
|--------------------------|
|-------------2-4-2-0------|
|---------------------2----|
This is the lead for the chorus

|--------------------|
|--------------------|
|--------------------|
|-------2-4-4-0------|
|-0-2-4---------2----|
|--------------------|
Tap to rate this tab
 
# A B C D E F G H I J K L M N O P Q R S T U V W X Y Z