Song name
# A B C D E F G H I J K L M N O P Q R S T U V W X Y Z

Mawillies - Willy Has Big Ears tab

tempo: 138

2-2-----1-1-------------guit1+2: disto

fig1

------------------------------------------------------------------|
------------------------------------------------------------------|
--9--9-----9-9-9-9--9-----9-9-9-----9--9-----9-9-9-9--9--9--------|
--9--9-----9-9-9-9--9-----9-9-9-----9--9-----9-9-9-9--9--9--------|
--7--7-----7-7-7-7--7-----7-7-7-----7--7-----7-7-7-7--7--7--------|
------------------------------------------------------------------|

-------------------------------------------------------------------|
-------------------------------------------------------------------|
--5--5-----5-5-5-5--5--------5---------5-----4-4-------------------|
--5--5-----5-5-5-5--5--------5---------5-4-4-4-4-3-3---------------|
--3--3-----3-3-3-3--3--------3---------3-4-4-2-5-3-3---------------|
-------------------------------------------------------------------|

This is a grate song when played right.

Happy Playing
Tap to rate this tab
 
# A B C D E F G H I J K L M N O P Q R S T U V W X Y Z