Song name
# A B C D E F G H I J K L M N O P Q R S T U V W X Y Z

Max Avery Lichtenstein - Tarnation tab

Played Throughout...
-------0-----------0---------------------------------------|
-----1---1-------1---1--------------1---------------1------|
---2-------2---2-------2---------0-----0----------0---0----|
-3-----------3-----------------2----------2-----2-------2--|
----------------------------3-----------------2------------|
-----------------------------------------------------------|

----------------------------------0------------------------|
-------1-----------1------------1---1----------------------|
-----0---0-------0---0--------2-------2--------------------|
---2-------2---2-------2----0-----------0------------------|
-0-----------0---------------------------------------------|
-----------------------------------------------------------|

-------0-----------0---------------------------------------|
-----1---1-------1---1--------------1---------------1------|
---2-------2---2-------2---------0-----0----------0---0----|
-3-----------3-----------------2----------2-----2-------2--|
----------------------------3-----------------2------------|
-----------------------------------------------------------|

-----------------------------------------------------------|
-------1-----------1--------------1-----------1------------|
-----0---0-------0---0----------0---0-------0---0----------|
---2-------2---2-------2------2-------2---2-------2--------|
-0-----------0--------------0-----------0------------------|
-----------------------------------------------------------|

 Piano bit...
-5-3-0----------------------5-3-0---0----------------------|
--------3-3-1---3-1------1--------3---1--------------------|
---------------------2-2-----------------------------------|
-----------------------------------------------------------|
-----------------------------------------------------------|
-----------------------------------------------------------|

Guitar solo...
-5-8-7-5---------------------------------------------------|
---------3-5-6-5-3-1---------------------------------------|
-----------------------------------------------------------|
-----------------------------------------------------------|
-----------------------------------------------------------|
-----------------------------------------------------------|
Tap to rate this tab
# A B C D E F G H I J K L M N O P Q R S T U V W X Y Z