Max Bemis - Do The Dohnk tab

-------------------------------------------------------------------------------
	       Do the Dohnk - Max Bemis and the Painful Splits
-------------------------------------------------------------------------------
Tabbed by: Sheldon M
Email: better_play_an_ibanez@msn.com

Here is a link to the official website and video:
http://www.sayanythingmusic.com/news/sneak-peek-video-max-
bemis-and-painful-splits-tour-exclusive-lp#comments

Tuning: Standard

Props to Max for a sweet song.  
And props to Sherri for nice backup vocals.

Intro:
e|----------------------------------|
B|----------------------------------|
G|-----4-4-4-----4-----4-4-4-----4--|
D|-----4-4-4-----4-----4-4-4-----4--| x2
A|-2-2------------------------------|
E|-----------2-2---4-4-------4-4----|

Verse: 
e|----------------------------------|
B|----------------------------------|
G|-----4-4-4-----4-----4-4-4-----4--|
D|-----4-4-4-----4-----4-4-4-----4--|
A|-2-2------------------------------|
E|-----------2-2---4-4-------4-4----|

Chorus:
e|-----------------------------------|
B|-----------------------------------|
G|--4-4-4-4-4-4-4-4-6-6-6-6-6-6-6-6--|
D|--4-4-4-4-4-4-4-4-6-6-6-6-6-6-6-6--|
A|--2-2-2-2-2-2-2-2-4-4-4-4-4-4-4-4--|
E|-----------------------------------|


************************************

| /   slide up
| \   slide down
| h   hammer-on
| p   pull-off
| ~   vibrato
| +   harmonic
| x   Mute note
| b   Bend
| pb  Pre-bend
| br  Bend release
| pbr Pre-bend release
| brb Bend release bend

************************************
Tap to rate this tab
 
# A B C D E F G H I J K L M N O P Q R S T U V W X Y Z