Song name
# A B C D E F G H I J K L M N O P Q R S T U V W X Y Z

Max Bemis - Our Sentence Is Up tab

-------------------------------------------------------------------------------
			     SONG NAME - Band Name
-------------------------------------------------------------------------------
Tabbed by:leonaugier
Email:

Tuning:eadgbe

This song is quite simple

e|------0-0------------------------------------------------------------------|
B|------1-1---------------0-0------------------------------------------------|
G|------------------------0-0------------------------------------------------|
D|---------------------------------------------------------------------------|
A|--3------------------------------------------------------------------------|
E|-------------------3-------------------------------------------------------|

And there you go,the rythm is simple enough that I trust you'll figure it out.

And for anyone interested in the piano tab
2|---E-E---B-B
2|---C-C---G-G
3|-C-----G----
Rythm's the same.


************************************

| /   slide up
| \   slide down
| h   hammer-on
| p   pull-off
| ~   vibrato
| +   harmonic
| x   Mute note
| b   Bend
| pb  Pre-bend
| br  Bend release
| pbr Pre-bend release
| brb Bend release bend

************************************
Tap to rate this tab
 
# A B C D E F G H I J K L M N O P Q R S T U V W X Y Z