Song name
# A B C D E F G H I J K L M N O P Q R S T U V W X Y Z

Max Bemis - Do The Dohnk tab

Max Bemis And The Painful Splits - Do The Dohnk


Really simple song, the other version had major faults.
Im sure this is 100% correct.

Tuning: Standard (EADGBe)

Intro & Verse x10
e|----------------------------|
B|----------------------------|
G|----------------------------|
D|-----444----4----444----4---|  
A|--22------------------------|
E|---------22---44-----44-----|

Chorus x4
e|---0----0----0---0----|
B|---0----0----0---0----|
G|---x----x----x---x----|
D|-444-4444-4666-666-6--|  
A|-222-2222-2444-444-4--|
E|-000-0000-0444-444-4--|

Verse 2 x9 	                  Pre-chorus x1
e|----------------------------|----------------------|
B|----------------------------|----------------------|
G|----------------------------|----------------------|
D|-----444----4----444----4---|----444----4-44444444-|
A|--22------------------------|-22----------22222222-|
E|---------22---44-----44-----|--------22---44444444-|


Chorus x8
e|---0----0----0---0----|
B|---0----0----0---0----|
G|---x----x----x---x----|
D|-444-4444-4666-666-6--|  
A|-222-2222-2444-444-4--|
E|-000-0000-0444-444-4--|

Bridge x3                       Pre-chrous 2 x1
e|----------------------------|-----------00000000-|
B|----------------------------|-----------00000000-|
G|----------------------------|-----------xxxxxxxx-|
D|-----444----4----444----4---|-44444-444-44444444-|
A|--22------------------------|-22222-222-22222222-|
E|---------22---44-----44-----|-------222-44444444-|
 
Chorus x8                  8th time end with
e|---0----0----0---0----|---0----0-----|
B|---0----0----0---0----|---0----0-----|
G|---x----x----x---x----|---x----x-----|
D|-444-4444-4666-666-6--|-444-4444-466-|
A|-222-2222-2444-444-4--|-222-2222-244-|
E|-000-0000-0444-444-4--|-000-0000-044-|
Tap to rate this tab
 
# A B C D E F G H I J K L M N O P Q R S T U V W X Y Z