Song name
# A B C D E F G H I J K L M N O P Q R S T U V W X Y Z

Max Bemis - Assimilate All Bastards tab

the whole song consists of three chords, all really easy, played throughout the
entire song... strumming is easy to figure out.




e|-----------------------------------------------------------------------------|
B|-----------------------------------------------------------------------------|
G|--7--------------------------------------------------------------------------|
D|--5--------------------------------------------------------------------------|
A|--3--------------------------------------------------------------------------|
E|-----------------------------------------------------------------------------|
           this defensing match


e|------------------------------------------------------------------------------|
B|------------------------------------------------------------------------------|
G|---7------------7-------------------------------------------------------------|
D|---5------------7-------------------------------------------------------------|
A|---7------------5-------------------------------------------------------------|
E|------------------------------------------------------------------------------|
               with   god almighty



same throughout whole song
Tap to rate this tab
# A B C D E F G H I J K L M N O P Q R S T U V W X Y Z