Song name
# A B C D E F G H I J K L M N O P Q R S T U V W X Y Z

Max Bemis - Lowman tab

I found the chords by watching a live version of Max playing Loathing a.k.a.
Lowman where he has a capo on the 8th fret the only difference in that
version is the break down where he plays it a little different but for the
album version the breakdown sounds like the one I have posted. The tab is
correct excluding the breakdown but it sounds so similar neither you nor
anyone else should be able to tell the difference. Lyrics are up and the
strum pattern is simple he does a basic up down up down strum pattern and a
quick 3 or 4 speedy stroke on the Am7 and the variation of the Fsus2
whenever they show up in the song. I put a * on the D string under them to
indicate the chords. The chords are below the word he sings when they
transition; I did my best on the breakdown it was hard to match the words so
I just matched the word he was on when he slightly transitions. I hope this
helps I know I couldn't find a tab anywhere so I tabbed it myself.

Tuning: a step down

d|-0-0-0-0-0---------------------------------------|
A|-1-1-1-1-1--      -------------------------------|
F|-0-0-0-0-0-   x2   ------------------------------|
C|-3-2-2-2-0--      -------------------------------|
G|-3-3-0-3-2---------------------------------------|
D|-*---*-------------------------------------------|

  Iím bad at being me I sweat and shake profusely when I see a girl I like
d|-0---------------0------0----------------0--------0------0-----------0---|
A|-1---------------1------1----------------1--------1------1-----------1---|
F|-0---------------0------0----------------0--------0------0-----------0---|
C|-3---------------2------2----------------2--------0------3-----------2---|
G|-3---------------3------0----------------3--------2------3-----------3---|
D|-*----------------------*--------------------------------*---------------|

  Iíd rather ride a bike
d|------0-------------0---0------------------------|
A|------1-------------1---1------------------------|
F|------0-------------0---0------------------------|
C|------2-------------2---0------------------------|
G|------0-------------3---2------------------------|
D|------*------------------------------------------|

  I push it off on God expect him to solve everything and sit right on my
d|-0----------------0-----0-----------------0-------0------0---------------|
A|-1----------------1-----1-----------------1-------1------1---------------|
F|-0----------------0-----0-----------------0-------0------0---------------|
C|-3----------------2-----2-----------------2-------0------3---------------|
G|-3----------------3-----0-----------------3-------2------3---------------|
D|-*----------------------*--------------------------------*---------------|

  ass as clouds and minutes pass
d|-0--------0----------------0---0-----------------|
A|-1--------1----------------1---1-----------------|
F|-0--------0----------------0---0-----------------|
C|-2--------2----------------2---0-----------------|
G|-3--------0----------------3---2-----------------|
D|----------*--------------------------------------|

   And I fade away    I fade away
d|-0--------0---0--0--0----0---0--0----------------|
A|-1--------3---1--3--1----3---1--3----------------|
F|-0--------0---0--0--0----0---0--0----------------|
C|-2--------2---2--2--2----2---2--2----------------|
G|-0--------3---0--3--0----3---0--3----------------|
D|-*------------*-----*--------*-------------------|

  Iím bad at making love I think Iíve never made it quite at all and I
d|-0------------------0-------0----------------0-------0------0------------|
A|-1------------------1-------1----------------1-------1------1------------|
F|-0------------------0-------0----------------0-------0------0------------|
C|-3------------------2-------2----------------2-------0------3------------|
G|-3------------------3-------0----------------3-------2------3------------|
D|-*--------------------------*-------------------------------*------------|

  dress like a stupid stinking mess
d|-0---------0------------------0---0--------------|
A|-1---------1------------------1---1--------------|
F|-0---------0------------------0---0--------------|
C|-2---------2------------------2---0--------------|
G|-3---------0------------------3---2--------------|
D|-----------*-------------------------------------|

  I care what people think I teeter on the brink and I fall off hook on
d|-0------------------0-------0---------------0-------0------0-------------|
A|-1------------------1-------1---------------1-------1------1-------------|
F|-0------------------0-------0---------------0-------0------0-------------|
C|-3------------------2-------2---------------2-------0------3-------------|
G|-3------------------3-------0---------------3-------2------3-------------|
D|-*--------------------------*------------------------------*-------------|

  drinks and nasty cancer sticks
d|-0---------0-------------0-----0-----------------|
A|-1---------1-------------1-----1-----------------|
F|-0---------0-------------0-----0-----------------|
C|-2---------2-------------2-----0-----------------|
G|-3---------0-------------3-----2-----------------|
D|-----------*-------------------------------------|

  Iím bad at making friends alone in my apartment that I call my department
d|-0------------------0------0--------------0------0-----0--------------0--|
A|-1------------------1------1--------------1------1-----1--------------1--|
F|-0------------------0------0--------------0------0-----0--------------0--|
C|-3------------------2------2--------------2------0-----3--------------2--|
G|-3------------------3------0--------------3------2-----3--------------3--|
D|-*-------------------------*---------------------------*-----------------|

  cause itís a depressing apartmentÖ get it?
d|------------0----------------0-------0-----------|
A|------------1----------------1-------1-----------|
F|------------0----------------0-------0-----------|
C|------------2----------------2-------0-----------|
G|------------0----------------3-------2-----------|
D|------------*------------------------------------|

  The devil knows me well heís guided me through several living hells itís
d|-0-----------------0------0----------------------0--------0----0---------|
A|-1-----------------1------1----------------------1--------1----1---------|
F|-0-----------------0------0----------------------0--------0----0---------|
C|-3-----------------2------2----------------------2--------0----3---------|
G|-3-----------------3------0----------------------3--------2----3---------|
D|-*------------------------*------------------------------------*---------|

  ironic that Iím becoming slightly thick
d|----0------------0------------------0---0--------|
A|----1------------1------------------1---1--------|
F|----0------------0------------------0---0--------|
C|----2------------2------------------2---0--------|
G|----3------------0------------------3---2--------|
D|-----------------*-------------------------------|

   As I fade away    I fade away
d|-0-------0---0--0--0----0---0--0-----------------|
A|-1-------3---1--3--1----3---1--3-----------------|
F|-0-------0---0--0--0----0---0--0-----------------|
C|-2-------2---2--2--2----2---2--2-----------------|
G|-0-------3---0--3--0----3---0--3-----------------|
D|-*-----------*-----*--------*--------------------|

                   Another in a chain    of self important     manic singer
d|-------------------------------------------------------------------------|
A|-------------------------------------------------------------------------|
F|-------------------------------------------------------------------------|
C|---2-----2-----2-----2-----2------2-----2-----2-----2-----2------2-------|
G|-----3-----3-----3-----3-----3------3-----3-----3-----3-----3------3-----|
D|-1-----1-----1-----1-----1------3-----3-----3-----3-----3------1-----1---|

          song writer refrains                    Haaaaaaaaaa
d|-------------------------------------------------------------------------|
A|-------------------------------------------------------------------------|
F|-------------------------------------------------------------------------|
C|-2-----2-----2-----2--------5-----5-----5-----5-----5----2-----2-----2---|
G|---3-----3-----3-----3----3-----3-----3-----3-----3--------3-----3-------|
D|-----1-----1-----1------1-----1-----1-----1-----1------1-----1-----1-----|

    Another lonely Jew                     who thinks the pen can
d|-------------------------------------------------------------------------|
A|-------------------------------------------------------------------------|
F|-------------------------------------------------------------------------|
C|-----2-----2-----2------2-----2-----2-----2------------------------------|
G|-3-----3-----3-----3------3-----3-----3---3------------------------------|
D|---1-----1-----1------3-----3-----3-------3------------------------------|

  battle all the guns they draw and drew but itís only F you
d|-0--------------0------------------0-------------0-----------------------|
A|-1--------------3------------------1-------------3-----------------------|
F|-0--------------0------------------0-------------0-----------------------|
C|-2--------------2------------------2-------------2-----------------------|
G|-0--------------3------------------0-------------3-----------------------|
D|-*---------------------------------*-------------------------------------|

  Na na na na na na na na na na na na naÖ
d|-0------0------0------0------0-------------------|
A|-1------1------1------1------1--      -----------|
F|-0------0------0------0------0-   x2   ----------|
C|-3------2------2------2------0--      -----------|
G|-3------3------0------3------2-------------------|
D|-*-------------*---------------------------------|

  Iím bad at writing songs and post progressive punk rock sing-a-longs
d|-0-------------------0-----0--------------------0---------0------0-------|
A|-1-------------------1-----1--------------------1---------1------1-------|
F|-0-------------------0-----0--------------------0---------0------0-------|
C|-3-------------------2-----2--------------------2---------0------3-------|
G|-3-------------------3-----0--------------------3---------2------3-------|
D|-*-------------------------*-------------------------------------*-------|

  theyíre not apt to sell my plastic acts(or ass as lyric sites claim)
d|------------0------0----------------0---0--------|
A|------------1------1----------------1---1--------|
F|------------0------0----------------0---0--------|
C|------------2------2----------------2---0--------|
G|------------3------0----------------3---2--------|
D|-------------------*-----------------------------|

  What do they lack that they somehow relate to me forget me in a year
d|-0-------------0------0--------------0---------0-----0------------0------|
A|-1-------------1------1--------------1---------1-----1------------1------|
F|-0-------------0------0--------------0---------0-----0------------0------|
C|-3-------------2------2--------------2---------0-----3------------2------|
G|-3-------------3------0--------------3---------2-----3------------3------|
D|-*--------------------*------------------------------*-------------------|

  like a love once held so dear
d|-----0--------------------0---0------------------|
A|-----1--------------------1---1------------------|
F|-----0--------------------0---0------------------|
C|-----2--------------------2---0------------------|
G|-----0--------------------3---2------------------|
D|-----*-------------------------------------------|

   And Iíll fade away    Iíll fade away
d|-0-----------0---0--0--0-------0---0--0----------|
A|-1-----------3---1--3--1-------3---1--3--      --|
F|-0-----------0---0--0--0-------0---0--0-   x2   -|
C|-2-----------2---2--2--2-------2---2--2--      --|
G|-0-----------3---0--3--0-------3---0--3----------|
D|-*---------------*-----*-----------*-------------|
Tap to rate this tab
 
# A B C D E F G H I J K L M N O P Q R S T U V W X Y Z