Song name
# A B C D E F G H I J K L M N O P Q R S T U V W X Y Z

Max Gazze - Una Musica Puo Fare tab

Max Gazzè - Una musica può fare

Tab by TheMaat Jaman (thejaman [a-t] gmail [dot] com)

intro
|-----------------------------------------|
|-----------------------------------------|
|-5-4------5-4--5-4-------5-4-------5-4---|
|-----7--7----------7-7-7-----7-7-7-----7-|
|-------7---------------------------------|
|-----------------------------------------|


|-----------------------------------|
|-----------------------------------|
|-----5-4-5-4-------5-4-------5-4---|
|---7---------7-7-7-----7-7-7------7|
|-7---------------------------------|
|-----------------------------------|


  [Am]	       [Em]
Una musica puo' fare
  [D]	  [E]	   [Am]
cantare lililli o lalalla (maggiore)

  [Am]	       [Em]
una musica puo' fare
  [D]	  [E]	   [Am]
cambiare nininni e nananna.
  [Am]	       [Em]
Una musica puo' fare
  [D]	  [E]	   [Am]
dove sei, non mi vuoi, stai con me
  [Am]	       [Em]
una musica puo' fare
  [D]	  [E]	   [Am]
cosa fai, non mi vuoi, tanto e' uguale

   [Am]	       [G]
una musica puo' fare.
  [C]        [Bb]     [F]
Salvarti sull'orlo del precipizio
[D]           [C]        [Bb]
quello che la musica puo' fare
   [C]	      [Bb]     [F]
salvarti sull'orlo del precipizio
[Dm]	  [A7]    [Bb]
non ci si puoo lamentare.

[intro]

    [Am]       [G]
Una musica puo' fare
  [D]	  [E]	   [Am]
dormire bambini il giorno
    [Am]       [G]
una musica puo' fare
  [D]	  [E]	   [Am]
svegliare bambini la notte

    [Am]       [G]
una musica può' fare
   [C]       [G]     [Am]       [E]
solitudini bastate a farsi da mangiare
   [C]       [G]     [Am]        [E]
solitudini bastate a farti innamorare.

         [Am]    [Em]    [D]   [E]  
Sotto l'armadio  (con la radio)

         [Am]    [Em]    [D]   [E]  
Sotto l'armadio  (con la radio)

         [Am]    [Em]    [D]   [E]  
Sotto l'armadio  (con la radio)

[Fade Out]
Tap to rate this tab
 
# A B C D E F G H I J K L M N O P Q R S T U V W X Y Z