Song name
# A B C D E F G H I J K L M N O P Q R S T U V W X Y Z

Max Herre - Wolke 7 tab

Max Herre feat. Philipp Poisel – Wolke 7 Chords/Tabs
© Tabbed by Pat Meruseye (www.facebook.com/patmeruseye)
Anmerkung: Capo 2.Bund

CHORDS:
xx0230
x2x230
2xx22x
3x0033

Nur für Anfänger relevant:
• Die Seiten sind von tief nach hoch dargestellt. Beispiel: 1. Akkord xx0230 = EADGHE
• x = die Seite sollte beim Akkord abgedämpft werden und nicht mitklingen
• die Zahlen geben den Bund an, wo dein Finger die Seite abgreift (vom Capodaster aus gesehen)
• 0 = Leerseite

Picking Pattern: (4/4 Takt) Noten werden als 8-tel Noten gespielt J

Jeder Block wird 2x gespielt
E --------------------------------------------------------- Chord: xx0230-|
H--------------3--------3-------------------------------------------------|
G -----------2--------2-------2-------------------------------------------|
D --------0---------0-------0---------------------------------------------|
A ------------------------------------------------------------------------|
E ------------------------------------------------------------------------|

E ---------------------------------------------------------- Chord: x2x230-|
H ---------------3----------3----------------------------------------------|
G -----------2----------2-----------2--------------------------------------|
D -------------------------------------------------------------------------|
A -------2-----------2-----------2-----------------------------------------|
E -------------------------------------------------------------------------|

E ---------------------------------------------------------- Chord: 2xx2-|2x
H --------------2------------2-------------------------------------------|
G ----------2-------------2-----------2----------------------------------|
D -----------------------------------------------------------------------|
A -----------------------------------------------------------------------|
E -------2-------------2----------2--------------------------------------|

E --------------------------------------------------------- Chord: 3x0033-|
H ----------------3-------------3-----------------------------------------|
G -----------0--------------0---------------0-----------------------------|
D ------------------------------------------------------------------------|
A ------------------------------------------------------------------------|
E -------3---------------3---------------3--------------------------------|
Beim 2. Block diese Variation
E --------------------------------------------------------- Chord: 3x0033-|
H ----------------3-------------------------------------------------------|
G -----------0--------------2--------0------------------------------------|
D ------------------------------------------------------------------------|
A ------------------------------------------------------------------------|
E -------3---------------3-------3--------3-------------------------------|
Tap to rate this tab
# A B C D E F G H I J K L M N O P Q R S T U V W X Y Z