Song name
# A B C D E F G H I J K L M N O P Q R S T U V W X Y Z

Max Herre - Blick Nach Vorn tab

Max Herre - Blick nach vorn

tabbed by Andreas Schwarz

CAPO 4th fret (in the Video he capoes on the 3rd, since his guitar is tuned to Eb-Tuning)

INTRO / CHORUS

     D     Dadd9/F#  G7/13        Gm6/Bb  C  D Dsus4 D
e|---2--2---0-0--0-------------------0----0---2-3-2--------------|
B|---3--3---3-3--3---3--3--3---------3----5---3-3-3--------------|
G|---2--2---2-2--2---3--3--3---------0----0---2-2-2--------------|
D|---0--0---0-0--0---3--3--3---------0----0---0-0-0------0-------|
A|-------------------x--x--x-----0-1-1--3-3-----------0h2--------|
E|----------2-2--2---3--3--3---3---------------------------------|

VERSE

    D            A            G
e|--2-2--2-2-2---0-0--0-0-0---3-3--3-3-3---3-3--3-3-3------------|
B|--3-3--3-3-3---2-2--2-2-2---3-3--3-3-3---3-3--3-3-3------------|
G|--2-2--2-2-2---2-2--2-2-2---0-0--0-0-0---0-0--0-0-0------------|
D|--0-0--0-0-0---2-2--2-2-2---0-0--0-0-0---0-0--0-0-0------------|
A|---------------0-0--0-0-0---2-2--2-2-2---2-2--2-2-2------------|
E|----------------------------3-3--3-3-3---3-3--3-3-3------------|

PRE-CHORUS

    Em7       A         Em7       A
e|--0-0-0-0---0-0-0-0---0-0-0-0---0-0-0-0------------------------|
B|--3-3-3-3---2-2-2-2---3-3-3-3---2-2-2-2------------------------|
G|--0-0-0-0---2-2-2-2---0-0-0-0---2-2-2-2------------------------|
D|--2-2-2-2---2-2-2-2---2-2-2-2---2-2-2-2------------------------|
A|--2-2-2-2---0-0-0-0---2-2-2-2---0-0-0-0------------------------|
E|--0-0-0-0-------------0-0-0-0----------------------------------|

BRIDGE

   C6        G6/B  G6/Bb  D-Dsus4 (on the 2nd repeat, just end with D)
e|--0-0-0-0---------------2-2h3-3p2-2h3-3p2-2h3-3p2--------------|
B|--3-3-3-3---3-3---3-3---3-3---3---3---3---3---3----------------|
G|--2-2-2-2---0-0---0-0---2-2---2---2---2---2---2----------------| X2
D|--x-x-x-x---x-x---x-x---0-0---0---0---0---0---0----------------|
A|--3-3-3-3---2-2---1-1------------------------------------------|
E|---------------------------------------------------------------|

after that he quietly strums the chords from the Intro

Intro
Verse
Pre-Chorus
Chorus
Verse
Pre-Chorus
Chorus
Bridge
Chorus
Tap to rate this tab
# A B C D E F G H I J K L M N O P Q R S T U V W X Y Z