Song name
# A B C D E F G H I J K L M N O P Q R S T U V W X Y Z

Max Pezzali - Sei Fantastica tab

-------------------------------------------------------------------------------
		       Sei Fantastica Solo - Max Pezzali
-------------------------------------------------------------------------------
Tabbed by: gabry3795
Email: gabry.gabry@hotmail.it

  IT: L'assolo inizia nel minuto 2:51
 ENG: Solo start at 2:51

Tuning: eADGBE (Standard Tuning)
          
           ~        ~                                    
e|-7---5-3-5--------0-----12---10----10---8-7-8-7-5-12-------19---17--15--15-|
B|--------------5-3---------------12------------------10---------------------|
G|------------------------------------------------------12-------------------|
D|---------------------------------------------------------------------------|
A|---------------------------------------------------------------------------|
E|---------------------------------------------------------------------------|
								  
e|-------------------19--17-15-17-15-----------------------------------------|
B|----------------------------------17-----------12-10-12-13-12-10-----------|
G|--16---14-12-14------------------------------12-----------------12---------|
D|-------------------------------------------14------------------------------|
A|---------------------------------------------------------------------------|
E|---------------------------------------------------------------------------|

e|--19--17-15-19-------------------------------------------------------------|
B|---------------------------------------------------------------------------|
G|-------------------19------16-17-------------------------------------------|
D|----------------------------------17---------------------------------------|
A|---------------------------------------------------------------------------|
E|---------------------------------------------------------------------------|


EN: Please report all corrections
IT: Contattatemi per le correzioni


************************************

| ~   vibrato

************************************
Tap to rate this tab
 
# A B C D E F G H I J K L M N O P Q R S T U V W X Y Z