Song name
# A B C D E F G H I J K L M N O P Q R S T U V W X Y Z

Max Prosa - Als Der Sturm Vorbei War tab

-------------------------------------------------------------------------------
			Max Prosa - Als der Sturm vorbei war
-------------------------------------------------------------------------------
Tabbed by:Poschek

Tuning:EADFAD

Intro
d|---------------------------------------------------------------------------|
a|-----0-------0-------0-------0-------0-------0-------0-------0-------------|
f|---------------------------0-------------------------------0---------------|
D|-----3-------3-------3------3--------3-------3-------3------3--------------|
A|-5-------5-------5-------5-------5-------5-------5-------5-----------------|
E|---------------------------------------------------------------------------|


Strophe
d|---------------------------------------------------------------------------|
a|-----0-------0-------0-------0-------0-------0-------0-------0-------------|
f|-----------------------------------------------------------0---------------|
D|-----3-------3-------3-------3-------2-------2-------2------2--------------|
A|-5-------5-------5-------5-------3-------3-------3-------3-----------------|
E|---------------------------------------------------------------------------|

d|---------------------------------------------------------------------------|
a|-----0-------0-------0-------0-------0-------0-------0-------0-------------|
f|-----------------------------------------------------------0---------------|
D|-----5-------5-------5-------5-------3-------3-------3------3--------------|
A|-6-------6-------6-------6-------5-------5-------5-------5-----------------|
E|---------------------------------------------------------------------------|



Refrain
d|-----0---------0-----0---------------2---------2-----2---------------------|
a|-----------3---------------3---------------3---------------3---------------|
f|-----0-------0-------0-------0-------2-------2-------2-------2-------------|
D|---------------------------------------------------------------------------|
A|-1-------1-------1-------1-------3-------3-------3-------3-----------------|
E|---------------------------------------------------------------------------|

d|-----2---------2-----2---------------3---------2-----------0---------------|
a|-----------0---------------0---------------0---------3---------------------|
f|-----2-------2-------2-------2-------0-------0-------0-------0-------------|
D|---------------------------------0-------0-------0-------0-----------------|
A|-4-------4-------4-------4-------------------------------------------------|
E|---------------------------------------------------------------------------|

d|-----0---------0-----0---------------0---------0-----0---------------------|
a|-----------3---------------3---------------1---------------1---------------|
f|-----0-------0-------0-------0-------0-------0-------0-------0-------------|
D|---------------------------------------------------------------------------|
A|-1-------1-------1-------1-------------------------------------------------|
E|---------------------------------3-------3-------3-------3-----------------|

d|-----3---------2-----3---------------2---------2-----2---------------------|
a|-----------0---------------0---------------3---------------3---------------|
f|-----0-------0-------0-------0-------2-------2-------2-------2-------------|
D|-0-------0-------0-------0-------------------------------------------------|
A|---------------------------------3-------3-------3-------3-----------------|
E|---------------------------------------------------------------------------|


d|-----0---------0-----0---------------2---------2-----2---------------------|
a|-----------3---------------3---------------3---------------3---------------|
f|-----0-------0-------0-------0-------2-------2-------2-------2-------------|
D|---------------------------------------------------------------------------|
A|-1-------1-------1-------1-------3-------3-------3-------3-----------------|
E|---------------------------------------------------------------------------|

d|-----2---------2-----2---------------3---------2-----------0---------------|
a|-----------0---------------0---------------0---------3---------------------|
f|-----2-------2-------2-------2-------0-------0-------0-------0-------------|
D|---------------------------------0-------0-------0-------0-----------------|
A|-4-------4-------4-------4-------------------------------------------------|
E|---------------------------------------------------------------------------|

d|-----0---------0-----0---------------0---------0-----0---------------------|
a|-----------3---------------3---------------1---------------1---------------|
f|-----0-------0-------0-------0-------0-------0-------0-------0-------------|
D|---------------------------------------------------------------------------|
A|-1-------1-------1-------1-------------------------------------------------|
E|---------------------------------3-------3-------3-------3-----------------|

d|---------------------------------------------------------------------------|
a|-----0-------0-------0-------0-------0------(5)-----(5)-----(5)-\----------|
f|---------------------------------------------------------------------------|
D|-----3-------3-------3-------3-------3-------3-------3-------3-------------|
A|-5-------5-------5-------5-------5-------5-------5-------5-----------------|
E|---------------------------------------------------------------------------|
(Die drei (5) auf der a Saite nur beim letzten Refrain)

Outro:
d|-----------------------------------------------0---------------------------|
a|(3)--3-------3-------3-------3-------1---------------1-------1-------------|
f|-------------------------------------------0-------------------------------|
D|-----0-------0-------0-------0-------2-------2-------2-------2-------------|
A|-1-------1-------1-------1-------------------------------------------------|
E|---------------------------------3-------3-------3-------3-----------------|

d|---------------------------------------------------------------------------|
a|-----0-------0-------0-------0-------0-------0-------0-------0-------------|
f|---------------------------------------------------------------------------|
D|-----3-------3-------3-------3-------3-------3-------3-------3-------------|
A|-5-------5-------5-------5-------5-------5-------5-------5-----------------|
E|---------------------------------------------------------------------------|

d|---------------0-------------------------------0-----------------0---------|
a|-----3---------------3-------3-------1---------------1-------1---0---------|
f|-----------0-------------------------------0---------------------0---------|
D|-----0-------0-------0-------0-------2-------2-------2-------2---3---------|
A|-1-------1-------1-------1---------------------------------------5---------|
E|---------------------------------3-------3-------3-------3-----------------|

| \   slide down
Tap to rate this tab
# A B C D E F G H I J K L M N O P Q R S T U V W X Y Z