Song name
# A B C D E F G H I J K L M N O P Q R S T U V W X Y Z

Max Romeo And The Upsetters - Chase The Devil tab

Help us improve GuitareTab! Take a short survey!
-------------------------------------------------------------------------------
		Max Romeo&The Upsetters - Chase the Devil
-------------------------------------------------------------------------------
Tabbed by:saftcheck
Email: saftcheck_@arcor.de
This song is from GTA San Andreas Soundtrack...
Max Romeo: http://en.wikipedia.org/wiki/Max_Romeo

Tuning:standard

am |dm |em
-5-|-5-|-7--
-5-|-6-|-8--
-5-|-7-|-9--
-4-|-7-|-9--
-4-|-5-|-7--
-5-|---|----


am em dm

dm em

Intro/Interlude(please send me some corrections for this,
I'm to stupid to tab it right):

e|----7------7-7-7-10\7-----/10\7--------------|
B|------8--------------------------------------|
G|---------------------------------------------|
D|---------------------------------------------|
A|---------------------------------------------|
E|---------------------------------------------|

Have fun
Related for Chase The Devil tab