Song name
# A B C D E F G H I J K L M N O P Q R S T U V W X Y Z

Max Webster - Check tab

Check-Max Webster

Riff 1 rhythm in mini solos
E-------------------------|
B-------------------------|
G-------------------------|
D-------------7-7---------|
A-7-7-5-7-7-5-5-5-5-------|
E-5-5-3-5-5-3-----3-------|

Riff 2 after riff 1
E-------------|
B-------------|
G-------------|
D-5-7-7-5-7---|
A-3-5-5-3-5---|
E-------------|

Riff 3 and rhythm in insane guitar solo
E---------------------------|
B---------------------------|
G---------------------------|
D-5-7-7-7-7-7-7-7-7-7-7-----|
A-3-5-5-5-5-5-5-5-5-5-5-----|
E---------------------------|
   Pm******     *******
Tap to rate this tab
# A B C D E F G H I J K L M N O P Q R S T U V W X Y Z