Song name
# A B C D E F G H I J K L M N O P Q R S T U V W X Y Z

Max Webster - On The Road tab

-----------------------------------------------------------------
On the road - 
Max 
Webster-----------------------------------------------------------------
Tabbed by: C.J. MckinnonEmail: cjmckinnon@me.com
Tuning: standard
intro
e|-0---0----0---0-0----0-0-0-0-----------|
B|-0---0----7---0-0----0-0-0-0-----------|
G|-6---9----9---4-2----1-2-1-1-----------|
D|-9---10---9---4-2----2-2-2-2-----------|
A|-9---10---x---0-0----2-2-2-0-----------|
E|-7---8---89--4x-2----0-0-0-2-----------|

verse
e|-0-0-0-0---0---------------------------|
B|-0-0-0-0---0---------------------------|
G|-1-2-1-1---2---------------------------|
D|-2-2-2-2---2---------------------------|
A|-2-2-2-0---0---------------------------|
E|-0-0-0-2---2---------------------------|

pre-chorus
e|--0---0--------------------------------|
B|--7---7--------------------------------|
G|--9---8--------------------------------|
D|--9---9--------------------------------|
A|--x---9--------------------------------|
E|--9---x--------------------------------|

chorus   last chord only on last chorus
e|--0--0--0---0--------------------------|
B|--5--0--0---0--------------------------|
G|--6--4--2---2--------------------------|
D|--7--4--2---2--------------------------|
A|--7--x--0---2--------------------------|
E|--x--4--2---x--------------------------|

end
e|-0--0--0-------------------------------|
B|-0--0--0-------------------------------|
G|-4--2--1-------------------------------|
D|-4--2--2-------------------------------|
A|-0--0--2-------------------------------|
E|-4--x--0-------------------------------|
Tap to rate this tab
# A B C D E F G H I J K L M N O P Q R S T U V W X Y Z