Song name
# A B C D E F G H I J K L M N O P Q R S T U V W X Y Z

Maxeen - Dont Make No Sense tab

Intro

e|-------7---7---7-----5----------------|
B|-------7---7---7-----5----------------|
G|-------9---9---9-----7----------------|
D|-------9---9---9-----7--X-X----X-X-X--|
A|-------7---7---7-----5--X-X----X-X-X--|
E|-----0-7-0-7---7-----5--X-X----X-X-X--|
                                                      x2
e|-------7---7---7-----5-5-----5-5-5-5--|
B|-------7---7---7-----5-5-----7-7-7-7--|
G|-------9---9---9-----7-7-----7-7-7-7--|
D|-------9---9---9-----7-7-----5-5-5-5--|
A|-------7---7---7-----5-5-----5-5-5-5--|
E|-----0-7-0-7---7-----5-5-----5-5-5-5--|

Verse

e|----------------------------------------|
B|----------------------------------------|
G|--------9---9---9-----7-7-X-X----X-X-X--|
D|--------9---9---9-----7-7-X-X----X-X-X--|
A|------0-7-0-7---7-----5-5-X-X----X-X-X--|
E|----------------------------------------|
                                                     x4
e|----------------------------------------|
B|----------------------------------------|
G|--------9---9---9-----7-7-7-7----7-7-7--|
D|--------9---9---9-----7-7-7-7----7-7-7--|
A|------0-7-0-7---7-----5-5-5-5----5-5-5--|
E|----------------------------------------|

Prechorus

e|-------------------------------------------------------------------|
B|-------------------------------------------------------------------|
G|--4-4-4-4-4-4-4-4-6-6-6-6-6-6-6-6-7-7-7-7-7-7-7-7-9-9-9-9-9-9-9-9--|
D|--4-4-4-4-4-4-4-4-6-6-6-6-6-6-6-6-7-7-7-7-7-7-7-7-9-9-9-9-9-9-9-9--|
A|--2-2-2-2-2-2-2-2-4-4-4-4-4-4-4-4-5-5-5-5-5-5-5-5-7-7-7-7-7-7-7-7--|
E|-------------------------------------------------------------------|

e|-------------------------------------------------------------------|
B|-------------------------------------------------------------------|
G|--4-4-4-4-4-4-4-4-6-6-6-6-6-6-6-6-7-7-7-7-7-7-7-7-7-7-7-7-7-7-7-7--|
D|--4-4-4-4-4-4-4-4-6-6-6-6-6-6-6-6-7-7-7-7-7-7-7-7-7-7-7-7-7-7-7-7--|
A|--2-2-2-2-2-2-2-2-4-4-4-4-4-4-4-4-5-5-5-5-5-5-5-5-5-5-5-5-5-5-5-5--|
E|-------------------------------------------------------------------|

Chorus

e|--7-7-------7-7-------5-5-------5-5------|
B|--7-7-------7-7-------5-5-------5-5------|
G|--9-9-------8-8-------7-7-------6-6------|  x3
D|--9-9-X-X---9-9-X-X---7-7-X-X---7-7-X-X--|
A|--7-7-X-X---9-9-X-X---5-5-X-X---7-7-X-X--|
E|--7-7-X-X---7-7-X-X---5-5-X-X---5-5-X-X--|

e|--7-7-------7-7-------5-5-------5-5-5-5--|
B|--7-7-------7-7-------5-5-------5-5-5-5--|
G|--9-9-------8-8-------7-7-------6-6-6-6--|
D|--9-9-X-X---9-9-X-X---7-7-X-X---7-7-7-7--|
A|--7-7-X-X---9-9-X-X---5-5-X-X---7-7-7-7--|
E|--7-7-X-X---7-7-X-X---5-5-X-X---5-5-5-7--|
Tap to rate this tab
# A B C D E F G H I J K L M N O P Q R S T U V W X Y Z