Song name
# A B C D E F G H I J K L M N O P Q R S T U V W X Y Z

Maxeen - Love Goes A Long Way tab

Intro/Verse
e|---------------------------------------------------------------------|
B|--9-9-9-9-4-4-4h5-4h5-9-9-9-9-4-4-4h5--9-9-9-9-4-4-4h5-4h5-9-9-9-9-4-|
G|--9-9-9-9-5-5-5---5---9-9-9-9-5-5-5----9-9-9-9-5-5-5---5---9-9-9-9-5-|
D|--9-9-9-9-------------9-9-9-9----------9-9-9-9-------------9-9-9-9---|
A|---------------------------------------------------------------------|
E|---------------------------------------------------------------------|


Chorus
e|--------------------------------------------------------------|
B|--------------------9-9-9-9-4-4-4h5---------------------------|
G|--------------------9-9-9-9-5-5-5-----------------------------|
D|--7---2---9---4-----9-9-9-9-----------------------------------|
A|--7---2---9---4-----------------------------------------------|
E|--5---0---7---2-----------------------------------------------|
     "I think i made a big mistake......"


e|-------------------------------------------------------------------|
B|-------------------------------------------------------------------|
G|-------------------------------------------------------------------|
D|-7--2--9--4---11-11--10-10--8-8--6-6------4-4-4-4-4-4-6------------|
A|-7--2--9--4---11-11--10-10--8-8--6-6------4-4-4-4-4-4-6------------|
E|-5--0--7--2----9--9---8--8--6-6--4-4------2-2-2-2-2-2-4------------|
 "One Girl, One Night, It Felt So Fake, It Wouldnt Last A Year Or
  A Month Or A Day"


e|-----------------------------------------------------------------|
B|--------9ring-------------9ring----------------------------------|
G|----9-----------------9------------------------------------------|
D|--9-----------------9--------------------------------------------|
A|-----------------------------------------------------------------|
E|-----------------------------------------------------------------|
          "Love Goes A Long Way"


Verse 2

Chorus

Solo- i cant figure out the lead for the solo, but for the rythem
      just play the chorus again


Verse 3
e|---------------------------------------------------------------|
B|--9--9--4----9--9--4-------------------------------------------|
G|--9--9--5----9--9--5-------------------------------------------|Play Slow
D|--9--9-------9--9----------------------------------------------|
A|---------------------------------------------------------------|
E|---------------------------------------------------------------|

e|-----------------------------------------------------------------|
B|--9-9-4h5-4h5-9-9--4h5-4h5---------------------------------------|
G|--9-9-5---5---9-9--5---5-----------------------------------------|
D|--9-9---------9-9------------------------------------------------|
A|-----------------------------------------------------------------|
E|-----------------------------------------------------------------|

Chorus


the end
Tap to rate this tab
 
# A B C D E F G H I J K L M N O P Q R S T U V W X Y Z