Song name
# A B C D E F G H I J K L M N O P Q R S T U V W X Y Z

Maximo Park - Wraithlike tab

-1-1-------------|
-----3-3---------|
---------2-2-----|
-------------0-0-|
-------------0-0-|
-----------------|

-----------------|
-----------------|
-----------------|
-0-0-0-0-0-0-0-0-|
-0-0-0-0-0-0-0-0-|
-----------------|

-----------------|
-----------------|
-----------------|
-0-0-0-0-0-0-0-0-|
-0-0-0-0-0-0-0-0-|
-----------------|

-----------------|
-----------------|
-2-2-0-0-2-2-0-0-|       Not sure about this part
-0-0-0-0-0-0-0-0-|       but it sounds right to me
-0-0-0-0-0-0-0-0-|
-----------------|

The rest of the song is a mix of open A
F, G and Dm chords i think but not sure of
the patterns.

Tabbed by Ali
Tap to rate this tab
 
# A B C D E F G H I J K L M N O P Q R S T U V W X Y Z