Song name
# A B C D E F G H I J K L M N O P Q R S T U V W X Y Z

Maximo Park - The Penultimate Clinch tab

-------------------------------------------------------------------------------
The Penultimate Clinch - Maximo Park
-------------------------------------------------------------------------------
Tabbed by: Giuseppe Landolina
Tuning: Standard
Date: 08 May 2009

Intro Guitar (follows bass)
      Cm          Bm
e|------------------------------------------|
B|------------------------------------------|
G|------------------------------------------|
D|------------------------------------------|
A|------------------------------------------|
E|----99999999-7-777------------------------|

Main Riff
           Cm      Bm
e|-(9)-----9-7-9-11-12-11-------------------|
B|-(9)-----9-7-9-12-----9-------------------|
G|------------------------------------------|
D|------------------------------------------|
A|------------------------------------------|
E|------------------------------------------|

Verse
      Cm    Bm     Cm    Bm
e|------------------------------------------|
B|------------------------------------------|
G|------------------------------------------|
D|------------------------------------------|
A|-----7-------------7----------------------|
E|----9-9-4-7x777--9-9-4-7x777--------------|

      Cm    Bm     Cm    Bm
e|------------------------------------------|
B|------------------------------------------|
G|------------------------------------------|
D|------------------------------------------|
A|----7--------------7----------------------|
E|-----9-4-7x777--99-9-4-7x777--------------|


I will add the rest when I get a minute to work it out.
Tap to rate this tab
# A B C D E F G H I J K L M N O P Q R S T U V W X Y Z