Song name
# A B C D E F G H I J K L M N O P Q R S T U V W X Y Z

Maximo Park - Wraithlike tab

::::::::::::::::::::::::
Maximo Park : Wraithlike
:::Quicken The Heart::::

Tabbed by Yas, Enjoy. C & R! Please =]


======
Intro:
======
e|-------------|-------------|------------------------|
B|-6-6---------|-------------|------------------------|
G|-----7-7-----|-------------|-101010-777-101010-777--|
D|---------7-7-|-7-----------|-101010-777-101010-777--|
A|-------------|-5-(x32)-----|-8-8-8--555-8-8-8--555--|
E|-------------|-------------|------------------------|

======
Verse:
======
e|---------------------------------------------------|
B|---------------------------------------------------|
G|-6-6-6-6-6-6--1010-777--6-6-6-6-6-6--1010-77-1010--|
D|-7-7-7-7-7-7--1010-777--7-7-7-7-7-7--1010-77-1010--|
A|-7-7-7-7-7-7--8-8--555--7-7-7-7-7-7--8-8--55-8-8---|
E|-5-5-5-5-5-5------------5-5-5-5-5-5----------------|
"Here's a song that finally you can understand,
A minor statement meant to counteract the plan"

e|-------------------------------------|
B|-------------------------------------|
G|-6-6-6-6-6-6--1010-777--6-6-6-6-6-6--|
D|-7-7-7-7-7-7--1010-777--7-7-7-7-7-7--|
A|-7-7-7-7-7-7--8-8--555--7-7-7-7-7-7--|
E|-5-5-5-5-5-5------------5-5-5-5-5-5--|
"A list of wraith-like things that quicken the heart"


e|------------------------------------------|
B|-6-6-------------------6-6----------------|
G|-----7-7-------------------7-7------------|
D|---------7-7--77777777----------77777777--| (x2)
A|--------------55555555----------55555555--|
E|------------------------------------------|

e|------------------------|
B|------------------------|
G|-101010-777-101010-777--|
D|-101010-777-101010-777--|
A|-8-8-8--555-8-8-8--555--|
E|------------------------|

========
Verse 2:
========
e|---------------------------------------------------|
B|---------------------------------------------------|
G|-6-6-6-6-6-6--1010-777--6-6-6-6-6-6--1010-77-1010--|
D|-7-7-7-7-7-7--1010-777--7-7-7-7-7-7--1010-77-1010--|
A|-7-7-7-7-7-7--8-8--555--7-7-7-7-7-7--8-8--55-8-8---|
E|-5-5-5-5-5-5------------5-5-5-5-5-5----------------|
"Just another song of faded memory,
a raison d'etre for the entire family"

e|-------------------------------------|
B|-------------------------------------|
G|-6-6-6-6-6-6--1010-777--6-6-6-6-6-6--|
D|-7-7-7-7-7-7--1010-777--7-7-7-7-7-7--|
A|-7-7-7-7-7-7--8-8--555--7-7-7-7-7-7--|
E|-5-5-5-5-5-5------------5-5-5-5-5-5--|
"I donīt remember it well, I was in love for a spell"

=======
Chorus:
=======
e|-3-3--5--1-1--5--3-3--3--1-1-1-1--5--3-3--5--1-1--5--3-3--33-1-|
B|-3-3--6--1-1--6--3-3--5--1-1-1-1--6--3-3--6--1-1--6--3-3--55-1-|
G|-4-4--7--2-2--7--4-4--5--2-2-2-2--7--4-4--7--2-2--7--4-4--55-2-|
D|-5-5--7--3-3--7--5-5--5--3-3-3-3--7--5-5--7--3-3--7--5-5--55-3-|
A|-5-5--5--3-3--5--5-5--3--3-3-3-3--5--5-5--5--3-3--5--5-5--33-3-|
E|-3-3-----1-1-----3-3-----1-1-1-1-----3-3-----1-1-----3-3-----1-|
"Copies of Sight and Sound, She left lying around on the floor
She said I'd forget her voice, That's untrue
It's just not as sharp as before"

=================
Intro part again:
=================
e|-------------|-------------|------------------------|
B|-6-6---------|-------------|------------------------|
G|-----7-7-----|-------------|-101010-777-101010-777--|
D|---------7-7-|-7-----------|-101010-777-101010-777--|
A|-------------|-5-(x32)-----|-8-8-8--555-8-8-8--555--|
E|-------------|-------------|------------------------|

========
Verse 2:
========
e|---------------------------------------------------|
B|---------------------------------------------------|
G|-6-6-6-6-6-6--1010-777--6-6-6-6-6-6--1010-77-1010--|
D|-7-7-7-7-7-7--1010-777--7-7-7-7-7-7--1010-77-1010--|
A|-7-7-7-7-7-7--8-8--555--7-7-7-7-7-7--8-8--55-8-8---|
E|-5-5-5-5-5-5------------5-5-5-5-5-5----------------|
"Find some transparent words to give security,
Another vacant smile that says rely on me"

e|-------------------------------------|
B|-------------------------------------|
G|-6-6-6-6-6-6--1010-777--6-6-6-6-6-6--|
D|-7-7-7-7-7-7--1010-777--7-7-7-7-7-7--|
A|-7-7-7-7-7-7--8-8--555--7-7-7-7-7-7--|
E|-5-5-5-5-5-5------------5-5-5-5-5-5--|
"No way commitment's a bore, where have I heard it before?"

e|------------------------------------------|
B|-6-6-------------------6-6----------------|
G|-----7-7-------------------7-7------------|
D|---------7-7--77777777----------77777777--| (x2)
A|--------------55555555----------55555555--|
E|------------------------------------------|

e|------------------------|
B|------------------------|
G|-101010-777-101010-777--|
D|-101010-777-101010-777--|
A|-8-8-8--555-8-8-8--555--|
E|------------------------|

========
Verse 4:
========
e|---------------------------------------------------|
B|---------------------------------------------------|
G|-6-6-6-6-6-6--1010-777--6-6-6-6-6-6--1010-77-1010--|
D|-7-7-7-7-7-7--1010-777--7-7-7-7-7-7--1010-77-1010--|
A|-7-7-7-7-7-7--8-8--555--7-7-7-7-7-7--8-8--55-8-8---|
E|-5-5-5-5-5-5------------5-5-5-5-5-5----------------|
"I could've sworn that everything was crystal clear,
But I was shackled by a language of ideas"

e|-------------------------------------|
B|-------------------------------------|
G|-6-6-6-6-6-6--1010-777--6-6-6-6-6-6--|
D|-7-7-7-7-7-7--1010-777--7-7-7-7-7-7--|
A|-7-7-7-7-7-7--8-8--555--7-7-7-7-7-7--|
E|-5-5-5-5-5-5------------5-5-5-5-5-5--|
"A desert has its own rules, outside the circle it's cruel"

=======
Chorus:
=======
e|-3-3--5--1-1--5--3-3--3--1-1-1-1--5--3-3--5--1-1--5--3-3--33-1-|
B|-3-3--6--1-1--6--3-3--5--1-1-1-1--6--3-3--6--1-1--6--3-3--55-1-|
G|-4-4--7--2-2--7--4-4--5--2-2-2-2--7--4-4--7--2-2--7--4-4--55-2-|
D|-5-5--7--3-3--7--5-5--5--3-3-3-3--7--5-5--7--3-3--7--5-5--55-3-|
A|-5-5--5--3-3--5--5-5--3--3-3-3-3--5--5-5--5--3-3--5--5-5--33-3-|
E|-3-3-----1-1-----3-3-----1-1-1-1-----3-3-----1-1-----3-3-----1-|
"Copies of Sight and Sound, She left lying around on the floor
She said I'd forget her voice, That's untrue
It's just not as sharp as before"

***********************************************************
This is all I have until now, I don't know the rest,
If any1 does p.m me or I will try and figure it out later.
***********************************************************
Tap to rate this tab
# A B C D E F G H I J K L M N O P Q R S T U V W X Y Z