Song name
# A B C D E F G H I J K L M N O P Q R S T U V W X Y Z

Maximo Park - Roller Disco Dreams tab

-------------------------------------------------------------------------------
		     Roller Disco Dreams - Maximo Park
-------------------------------------------------------------------------------
Tabbed by: steveprudden
Tuning: Standard

Thsi is one of my favourite songs on the new album. I figured it out in literally
about 15 minutes so some of it might be a littleoff. Some of the phrasings might
be wrong but it's a start. Please comment if you have any improvements.


  Intro/Verse
e|-------------------------------------------------3---0---------------------|
B|-------------------------------------------------3---0---------------------|
G|-----2p0----------2p0--------2p0----------2p0----0---0---------------------|
D|---4-----4------4-----4----4-----4------4-----4--0---2---------------------|
A|-2----------2-2----------2----------2-2----------2---2---------------------|
E|-------------------------------------------------3---0---------------------|

If you have 2 guitarists the lead can keep playing the picked bit and the 
rhythm strum a Bm in the picked part shown above.

  Bridge
e|---------------------------------------------------------------------------|
B|---------------------------------------------------------------------------|
G|---------------------------------------------------------------------------|
D|-11--11--11-11-11-9--9-9-7--7-7---11--11--11-11-11-9--9-9-7--7-7-----------|
A|-11--11--11-11-11-9--9-9-7--7-7---11--11--11-11-11-9--9-9-7--7-7-----------|
E|-9---9---9--9--9--7--7-7-5--5-5---9---9---9--9--9--7--7-7-5--5-5-----------|
  (There's a distant draw...)

e|---------------------------------------------------------------------------|
B|---------------------------------------------------------------------------|
G|---------------------------------------------------------------------------|
D|-9--9--9-9-9-5--5-5-2--2-2---9--9--9-9-9-5--5-5-2--2-2---------------------|
A|-9--9--9-9-9-5--5-5-2--2-2---9--9--9-9-9-5--5-5-2--2-2---------------------|
E|-7--7--7-7-7-3--3-3-0--0-0---7--7--7-7-7-3--3-3-0--0-0---------------------|

  Chorus
e|---------------------------------------------------------------------------|
B|---------------------------------------------------------------------------|
G|-7--7--7-7-7-9--9-9-11--11-11--7--7--7-7-7-11--11-11-9--9-9----------------|
D|-7--7--7-7-7-9--9-9-11--11-11--7--7--7-7-7-11--11-11-9--9-9----------------|
A|-5--5--5-5-5-7--7-7-9---9--9---5--5--5-5-5-9---9--9--7--7-7----------------|
E|---------------------------------------------------------------------------|
  (Onto fireworks in Brixton...)

e|---------------------------------------------------------------------------|
B|---------------------------------------------------------------------------|
G|---------------------------------------------------------------------------|
D|-5--5--5-5-5-7--7-7--7-7-7--5--5--5-5-5-7--7-7--7-7-7----------------------|
A|-5--5--5-5-5-7--7-7--7-7-7--5--5--5-5-5-7--7-7--7-7-7----------------------|
E|-3--3--3-3-3-5--5-5--5-5-5--3--3--3-3-3-5--5-5--5-5-5----------------------|
  (If it's a grower...)

The outro just uses the chorus over and over.

Done!
===============================================================================
| /  slide up
| \  slide down
| h  hammer-on
| p  pull-off
| ~  vibrato
| +  harmonic
| x  Mute note
===============================================================================
Tap to rate this tab
# A B C D E F G H I J K L M N O P Q R S T U V W X Y Z