Song name
# A B C D E F G H I J K L M N O P Q R S T U V W X Y Z

Maximo Park - Postcard Of A Painting tab

SARUROS!!! aki les traigooo la rolaa entera :D
 
primero q nada las notas utilizadas son: Fa# Sol# Mi Do# Re La 
                                          F#  G#  E   C#  D  A
(la nota LA - A solo se utiliza en la ultima nota del primer verso)

Verso 1(verse 
e|---4-------4--------4---------2--------------------------------------------|
B|----5-------5--------5---------3-------------------------------------------|
G|-----6-------6--------6---------2------------------------------------------|
D|--4------44----------------00----------------------------------------------|
A|------------------44-------------------------------------------------------|
E|---------------------------------------------------------------------------|
   X 6
bueno este verso se repite 6 veces(incluido el intro)

 chorus 1
e|---------------------------------------------------------------------------|
B|---------------------------------------------------------------------------|
G|---------------------------------------------------------------------------|
D|-11--7---11--6-7---11--7---11--6-------------------------------------------|
A|-9---5---9---4-5---9---5---9---4-------------------------------------------|
E|---------------------------------------------------------------------------|
 Chorus 2

bueno ahy le hacen el rasgeo rapido estas son las notas
e|---------------------------------------------------------------------------|
B|---------------------------------------------------------------------------|
G|-11-----6------7-----------------------------------------------------------|
D|-11-----6------7-----------------------------------------------------------|
A|-9------4------5-----------------------------------------------------------|
E|---------------------------------------------------------------------------|
   X 3
e|---------------------------------------------------------------------------|
B|---------------------------------------------------------------------------|
G|-11-----6------------------------------------------------------------------|
D|-11-----6------------------------------------------------------------------|
A|-9------4------------------------------------------------------------------|
E|---------------------------------------------------------------------------|

 Verso 1   (verse 1)


 chorus 1

 y finaliza con esto

e|---------------------------------------------------------------------------|
B|---------------------------------------------------------------------------|
G|---------------------------------------------------------------------------|
D|-11--7---11--6-7---11--7---11--6-------------7/11--------------------------|
A|-9---5---9---4-5---9---5---9---4-------------5/9---------------------------|
E|---------------------------------------------------------------------------|
 
gracias ^^ espero que les sea de ayuda 



 

Tap to rate this tab
 
# A B C D E F G H I J K L M N O P Q R S T U V W X Y Z