Song name
# A B C D E F G H I J K L M N O P Q R S T U V W X Y Z

Maximo Park - Graffiti tab

Verse:
Play once. Then vocals come in
"Well thats enough..."
-------------------------------------------------------------------------------------|
-------------------------------------------------------------------------------------|
--9-9--------- 9-9-------------------------------------------------------------------|
--9-9-9-11-12-9-9-12-11-7/99999999--12-11-77777777--12-11--22222222------------------|
--7-7-9-11-12-7-7-12-11-7/99999999--12-11-77777777--12-11--22222222------------------|
--0-0-7--9-10-0-0-10--9-5/77777777--10- 9--55555555--10-9---00000000-----------------|
 Repeat throughout the verse

Chorus:
                                         "I'l do graffiti if you sing to me in french"
-------------------------------------------------------------------------------------|
-------------------------------------------------------------------------------------|
--9-9-9-9-9-9-9-9-9-9-9-9-9-9-9-9--6-6-6-6-6-6-6-6-6-6-6-6-6-6-6-6/7/8---------------|
--9-9-9-9-9-9-9-9-9-9-9-9-9-9-9-9--6-6-6-6-6-6-6-6-6-6-6-6-6-6-6-6/7/8---------------|
--7-7-7-7-7-7-7-7-7-7-7-7-7-7-7-7--4-4-4-4-4-4-4-4-4-4-4-4-4-4-4-4/5/6---------------|
--0-0-0-0-0-0-0-0-0-0-0-0-0-0-0-0----------------------------------------------------|


------------------------------------------------------------------------------------|
------------------------------------------------------------------------------------|
--9-9-9-9-9-9-9-9-9-9-9-9-9-9-9-9--6-6-6-6-6-6-6-6-6-6-6-6-6-6-6-6/7/8--------------|
--9-9-9-9-9-9-9-9-9-9-9-9-9-9-9-9--6-6-6-6-6-6-6-6-6-6-6-6-6-6-6-6/7/8--------------|
--7-7-7-7-7-7-7-7-7-7-7-7-7-7-7-7--4-4-4-4-4-4-4-4-4-4-4-4-4-4-4-4/5/6--------------|
--0-0-0-0-0-0-0-0-0-0-0-0-0-0-0-0---------------------------------------------------|


-----------------------------------------------------------------------------------|
-----------------------------------------------------------------------------------|
--4-4-4-4-4-4-4-4-4-4-4-4-4-4-4------------------------------------ ---------------|x2
--4-4-4-4-4-4-4-4-4-4-4-4-4-4-4- 7-7-7-7-7-7-7-7-7-7-7-7-7-7-7-7-------- ----------|
--2-2-2-2-2-2-2-2-2-2-2-2-2-2-2- 7-7-7-7-7-7-7-7-7-7-7-7-7-7-7-7------------ ------|
----------------------------------5-5-5-5-5-5-5-5-5-5-5-5-5-5-5-5------------------|

That Is The Whole Song Apart From The Solo Which I Don't Know How It Goes But That Is The Bit
This Is Played Over It. It Is Only One Chord
-----------------------------------------------------------------------------------|
-----------------------------------------------------------------------------------|
--9999999999999999999999999999999999999999999999999999999999999----------- --------|
--9999999999999999999999999999999999999999999999999999999999999------- ------------|
--7777777777777777777777777777777777777777777777777777777777777-------- -----------|
--0000000000000000000000000000000000000000000000000000000000000--------------------|

It Is Just The Chorus After The solo Which Fades Out  ....
Tap to rate this tab
 
# A B C D E F G H I J K L M N O P Q R S T U V W X Y Z