Song name
# A B C D E F G H I J K L M N O P Q R S T U V W X Y Z

Maximo Park - Our Velocity tab

Maximo Park - Our Velocity



#----------------------------------PLEASE NOTE----------------------------------#
# This file is the author's own work and represents their interpretation of the #
# song. You may only use this file for private study, scholarship, or research. #
#-------------------------------------------------------------------------------#

Main Riff

E|---------------------|--------------------|-----------------------|
B|---------------------|--------------------|-----------------------|
G|---------14--14--14--|--9--9--9--7--7--7--|--9--9--9--14--14--14--|
D|---------14--14--14--|--9--9--9--7--7--7--|--9--9--9--14--14--14--|
A|---------12--12--12--|--7--7--7--5--5--5--|--7--7--7--12--12--12--|
E|---------------------|--------------------|-----------------------|


E|---------------------|-----------------------|
B|---------------------|-----------------------|
G|--9--9--9--7--7--7---|--9--9--9--14--14--14--|
D|--9--9--9--7--7--7---|--9--9--9--14--14--14--|
A|--7--7--7--5--5--5---|--7--7--7--12--12--12--|
E|---------------------|-----------------------|


2nd Riff

  ''Never Never Try to Gauge....''
E|--------------------------|--------------------------|
B|--------------------------|--------------------------|
G|--------------------8--8--|--------------------8--8--|
D|--5--5--5--5--5--5--8--8--|--5--5--5--5--5--5--8--8--|
A|--5--5--5--5--5--5--6--6--|--5--5--5--5--5--5--6--6--|
E|--3--3--3--3--3--3--------|--3--3--3--3--3--3--------|


E|--------------------------|
B|--------------------------|
G|--------------------------|
D|--8--8--8--8--8--8--6--6--|
A|--8--8--8--8--8--8--6--6--|   X2
E|--6--6--6--6--6--6--4--4--|


3rd Riff

  ''..scar''
E|--------------------------|----------------------------------|
B|--------------------------|----------------------------------|
G|--8--8--8--8--8--8--8--8--|--10--10--10--10--10--10--10--10--|
D|--8--8--8--8--8--8--8--8--|--10--10--10--10--10--10--10--10--|
A|--6--6--6--6--6--6--6--6--|--8---8---8---8---8---8---8---8---|
E|--------------------------|----------------------------------|


E|------------------------------|----------------------------------|
B|------------------------------|----------------------------------|
G|--13--13--13--13--13--13--13--|--12--12--12--12--12--12--12--12--|
D|--13--13--13--13--13--13--13--|--12--12--12--12--12--12--12--12--|
A|--11--11--11--11--11--11--11--|--10--10--10--10--10--10--10--10--|  
E|------------------------------|----------------------------------|


  ''Ive got noone to call...''
E|--------------------------|----------------------------------|
B|--------------------------|----------------------------------|
G|--8--8--8--8--8--8--8--8--|--10--10--10--10--10--10--10--10--|
D|--8--8--8--8--8--8--8--8--|--10--10--10--10--10--10--10--10--|
A|--6--6--6--6--6--6--6--6--|--8---8---8---8---8---8---8---8---|
E|--------------------------|----------------------------------|


E|------------------------------|----------------------------------|
B|------------------------------|----------------------------------|
G|--13--13--13--13--13--13--13--|--12--12--12--12--12--12--12--12--|
D|--13--13--13--13--13--13--13--|--12--12--12--12--12--12--12--12--|
A|--11--11--11--11--11--11--11--|--10--10--10--10--10--10--10--10--|  
E|------------------------------|----------------------------------|

E|--------------------------|----------------------------------|
B|--------------------------|----------------------------------|
G|--8--8--8--8--8--8--8--8--|--10--10--10--10--10--10--10--10--|
D|--8--8--8--8--8--8--8--8--|--10--10--10--10--10--10--10--10--|
A|--6--6--6--6--6--6--6--6--|--8---8---8---8---8---8---8---8---|
E|--------------------------|----------------------------------|

E|--------------------------|--------------------------|
B|--------------------------|--------------------------|
G|--------------------------|--------------------------|
D|--6--6--6--6--6--6--6--6--|--8--8--8--8--8--8--8--8--|
A|--6--6--6--6--6--6--6--6--|--8--8--8--8--8--8--8--8--|    repeat from
E|--8--8--8--8--8--8--8--8--|--6--6--6--6--6--6--6--6--|   ''noone to call''


Scaleys First Tab. Feedback scaley1@hotmail.com.






Tap to rate this tab
# A B C D E F G H I J K L M N O P Q R S T U V W X Y Z