Song name
# A B C D E F G H I J K L M N O P Q R S T U V W X Y Z

Maximo Park - Girls Who Play Guitars tab

Bought the album, liked this song, and figured it out. Can't find any tabs for it elsewhere so here it is...
It's hard to tell whats verse, chorus etc so ive just put them into 'rythmns'

Rythmn 1
|-------------------------------------------------|
|-------------------------------------------------|
|--------------------------------------4-6--------|
|----4-6---------4-6--------4-6--------7-7--------|
|----7-7---------7-7--------7-7-------------------|
|-------------------------------------------------|

|-------------------------------------------------|
|-------------------------------------------------|
|--------------------------------------4-6----4-6-|
|----4-6---------4-6--------4-6--------7-7----7-7-|
|----7-7---------7-7--------7-7-------------------|
|-------------------------------------------------|

|-------------------------------------------------|
|-------------------------------------------------|
|--------------------------------------4-6--------|
|----4-6---------4-6--------4-6--------7-7--------|
|----7-7---------7-7--------7-7-------------------|
|-------------------------------------------------|

|-------------------------------------------------|
|-------------------------------------------------|
|--------------------------------------4-6----4-6-|
|----4-6---------4-6--------4-6--------7-7----7-7-|
|----7-7---------7-7--------7-7-------------------|
|-------------------------------------------------|

Rythmn 2
|-------------------------------------------6-----|
|-----------------------------------5---7---------|
|---4-4-4-4-4---------4-4-4-4----6----------------|
|---6-6-6-6-6--4-4-4--7-7-7-7---------------------|
|--------------7-7-7------------------------------|
|-------------------------------------------------|

|-------------------------------------------6-----|
|-----------------------------------5---7---------|
|---4-4-4-4-4---------4-4-4-4----6----------------|
|---6-6-6-6-6--4-4-4--7-7-7-7---------------------|
|--------------7-7-7------------------------------|
|-------------------------------------------------|

|-------------------------------------------6-----|
|-----------------------------------5---7---------|
|---4-4-4-4-4---------4-4-4-4----6----------------|
|---6-6-6-6-6--4-4-4--7-7-7-7---------------------|
|--------------7-7-7------------------------------|
|-------------------------------------------------|

|-------------------------------------------6-----|
|-----------------------------------5---7---------|
|---4-4-4-4-4---------4-4-4-4----6----------------|
|---6-6-6-6-6--4-4-4--7-7-7-7---------------------|
|--------------7-7-7------------------------------|
|-------------------------------------------------|


Rythmn 1
|-------------------------------------------------|
|-------------------------------------------------|
|--------------------------------------4-6----4-6-|
|----4-6---------4-6--------4-6--------7-7----7-7-|
|----7-7---------7-7--------7-7-------------------|
|-------------------------------------------------|

|-------------------------------------------------|
|-------------------------------------------------|
|--------------------------------------4-6--------|
|----4-6---------4-6--------4-6--------7-7--------|
|----7-7---------7-7--------7-7-------------------|
|-------------------------------------------------|

|-------------------------------------------------|
|-------------------------------------------------|
|--------------------------------------4-6----4-6-|
|----4-6---------4-6--------4-6--------7-7----7-7-|
|----7-7---------7-7--------7-7-------------------|
|-------------------------------------------------|

Rythmn 2
|-------------------------------------------6-----|
|-----------------------------------5---7---------|
|---4-4-4-4-4---------4-4-4-4----6----------------|
|---6-6-6-6-6--4-4-4--7-7-7-7---------------------|
|--------------7-7-7------------------------------|
|-------------------------------------------------|

|-------------------------------------------6-----|
|-----------------------------------5---7---------|
|---4-4-4-4-4---------4-4-4-4----6----------------|
|---6-6-6-6-6--4-4-4--7-7-7-7---------------------|
|--------------7-7-7------------------------------|
|-------------------------------------------------|

|-------------------------------------------6-----|
|-----------------------------------5---7---------|
|---4-4-4-4-4---------4-4-4-4----6----------------|
|---6-6-6-6-6--4-4-4--7-7-7-7---------------------|
|--------------7-7-7------------------------------|
|-------------------------------------------------|

|-------------------------------------------6-----|
|-----------------------------------5---7---------|
|---4-4-4-4-4---------4-4-4-4----6----------------|
|---6-6-6-6-6--4-4-4--7-7-7-7---------------------|
|--------------7-7-7------------------------------|
|-------------------------------------------------|


Rythmn 3
|---8--8--8--8------3--3--3--3----3--3--3--3------|
|---10-10-11-10-----5--5--5--5----3--3--3--3------|
|---10-10-10-10-----5--5--5--5----4--4--4--4------|
|---10-10-10-10-----5--5--5--5----5--5--5--5------|
|---8--8--8--8------3--3--3--3----5--5--5--5------|
|---------------------------------3--3--3--3------|

|---8--8--8--8------3--3--3--3----3--3--3--3------|
|---10-10-11-10-----5--5--5--5----3--3--3--3------|
|---10-10-10-10-----5--5--5--5----4--4--4--4------|
|---10-10-10-10-----5--5--5--5----5--5--5--5------|
|---8--8--8--8------3--3--3--3----5--5--5--5------|
|---------------------------------3--3--3--3------|

|---8--8--8--8------3--3--3--3----3--3--3--3------|
|---10-10-11-10-----5--5--5--5----3--3--3--3------|
|---10-10-10-10-----5--5--5--5----4--4--4--4------|
|---10-10-10-10-----5--5--5--5----5--5--5--5------|
|---8--8--8--8------3--3--3--3----5--5--5--5------|
|---------------------------------3--3--3--3------|

|---8--8--8--8------3--3----------3--3------------|
|---10-10-11-10-----5--5----------3--3------------|
|---10-10-10-10-----5--5----------4--4------------|
|---10-10-10-10-----5--5----------5--5------------|
|---8--8--8--8------3--3----------5--5------------|
|---------------------------------3--3------------|

Rythmn 1
|-------------------------------------------------|
|-------------------------------------------------|
|--------------------------------------4-6--------|
|----4-6---------4-6--------4-6--------7-7--------|
|----7-7---------7-7--------7-7-------------------|
|-------------------------------------------------|

|-------------------------------------------------|
|-------------------------------------------------|
|--------------------------------------4-6----4-6-|
|----4-6---------4-6--------4-6--------7-7----7-7-|
|----7-7---------7-7--------7-7-------------------|
|-------------------------------------------------|

|-------------------------------------------------|
|-------------------------------------------------|
|--------------------------------------4-6--------|
|----4-6---------4-6--------4-6--------7-7--------|
|----7-7---------7-7--------7-7-------------------|
|-------------------------------------------------|

|-------------------------------------------------|
|-------------------------------------------------|
|--------------------------------------4-6----4-6-|
|----4-6---------4-6--------4-6--------7-7----7-7-|
|----7-7---------7-7--------7-7-------------------|
|-------------------------------------------------|

Rythmn 3
|---8--8--8--8------3--3--3--3----3--3--3--3------|
|---10-10-11-10-----5--5--5--5----3--3--3--3------|
|---10-10-10-10-----5--5--5--5----4--4--4--4------|
|---10-10-10-10-----5--5--5--5----5--5--5--5------|
|---8--8--8--8------3--3--3--3----5--5--5--5------|
|---------------------------------3--3--3--3------|

|---8--8--8--8------3--3--3--3----3--3--3--3------|
|---10-10-11-10-----5--5--5--5----3--3--3--3------|
|---10-10-10-10-----5--5--5--5----4--4--4--4------|
|---10-10-10-10-----5--5--5--5----5--5--5--5------|
|---8--8--8--8------3--3--3--3----5--5--5--5------|
|---------------------------------3--3--3--3------|

|---8--8--8--8------3--3--3--3----3--3--3--3------|
|---10-10-11-10-----5--5--5--5----3--3--3--3------|
|---10-10-10-10-----5--5--5--5----4--4--4--4------|
|---10-10-10-10-----5--5--5--5----5--5--5--5------|
|---8--8--8--8------3--3--3--3----5--5--5--5------|
|---------------------------------3--3--3--3------|

|---8--8--8--8------3--3--3--3----3--3--3--3------|
|---10-10-11-10-----5--5--5--5----3--3--3--3------|
|---10-10-10-10-----5--5--5--5----4--4--4--4------|
|---10-10-10-10-----5--5--5--5----5--5--5--5------|
|---8--8--8--8------3--3--3--3----5--5--5--5------|
|---------------------------------3--3--3--3------|

Rythmn 4
|----------------------------------|
|----------------------------------|
|------4-------4-------4-------4---|
|----4---4---4---4---4---4---4---4-|
|--7-------5-------5---------------|
|--------------------------7-------|

|----------------------------------|
|----------------------------------|
|------4-------4-------4-------4---|
|----4---4---4---4---4---4---4---4-|
|--7-------5-------5---------------|
|--------------------------7-------|

|----------------------------------|
|----------------------------------|
|------5-------5-------5-------5---|
|----6---6---6---6---6---6---6---6-|
|--8-------6-------6---------------|
|--------------------------8-------|

|----------------------------------|
|----------------------------------|
|------5-------5-------5-------5---|
|----6---6---6---6---6---6---6---6-|
|--8-------6-------6---------------|
|--------------------------8-------|

|----------------------------------|
|----------------------------------|
|------4-------4-------4-------4---|
|----4---4---4---4---4---4---4---4-|
|--7-------5-------5---------------|
|--------------------------7-------|

|----------------------------------|
|----------------------------------|
|------4-------4-------4-------4---|
|----4---4---4---4---4---4---4---4-|
|--7-------5-------5---------------|
|--------------------------7-------|

|----------------------------------|
|----------------------------------|
|------5-------5-------5-------5---|
|----6---6---6---6---6---6---6---6-|
|--8-------6-------6---------------|
|--------------------------8-------|

|----------------------------------|
|----------------------------------|
|------5-------5-------5-------5---|
|----6---6---6---6---6---6---6---6-|
|--8-------6-------6---------------|
|--------------------------8-------|

Rythmn 5
|--7--7--7----7---------10-10-10-10---10-10-10----|
|--9--9--9----7---------12-12-12-12---10-10-10----|
|--9--9--9----8---------12-12-12-12---11-11-11----|
|--9--9--9----9---------12-12-12-12---12-12-12----|
|--7--7--7----9---------10-10-10-10---12-12-12----|
|-------------7-----------------------10-10-10----|

Rythmn 3
|---8--8--8--8------3--3--3--3----3--3--3--3------|
|---10-10-11-10-----5--5--5--5----3--3--3--3------|
|---10-10-10-10-----5--5--5--5----4--4--4--4------|
|---10-10-10-10-----5--5--5--5----5--5--5--5------|
|---8--8--8--8------3--3--3--3----5--5--5--5------|
|---------------------------------3--3--3--3------|

|---8--8--8--8------3--3--3--3----3--3--3--3------|
|---10-10-11-10-----5--5--5--5----3--3--3--3------|
|---10-10-10-10-----5--5--5--5----4--4--4--4------|
|---10-10-10-10-----5--5--5--5----5--5--5--5------|
|---8--8--8--8------3--3--3--3----5--5--5--5------|
|---------------------------------3--3--3--3------|

|---8--8--8--8------3--3--3--3----3--3--3--3------|
|---10-10-11-10-----5--5--5--5----3--3--3--3------|
|---10-10-10-10-----5--5--5--5----4--4--4--4------|
|---10-10-10-10-----5--5--5--5----5--5--5--5------|
|---8--8--8--8------3--3--3--3----5--5--5--5------|
|---------------------------------3--3--3--3------|

|---8--8--8--8------3--3--3--3----3--3--3--3------|
|---10-10-11-10-----5--5--5--5----3--3--3--3------|
|---10-10-10-10-----5--5--5--5----4--4--4--4------|
|---10-10-10-10-----5--5--5--5----5--5--5--5------|
|---8--8--8--8------3--3--3--3----5--5--5--5------|
|---------------------------------3--3--3--3------|

|---8--8--8--8------3--3----------3--3------------|
|---10-10-11-10-----5--5----------3--3------------|
|---10-10-10-10-----5--5----------4--4------------|
|---10-10-10-10-----5--5----------5--5------------|
|---8--8--8--8------3--3----------5--5------------|
|---------------------------------3--3------------|

Rythmn 1
|-------------------------------------------------|
|-------------------------------------------------|
|--------------------------------------4-6--------|
|----4-6---------4-6--------4-6--------7-7--------|
|----7-7---------7-7--------7-7-------------------|
|-------------------------------------------------|

|-------------------------------------------------|
|-------------------------------------------------|
|--------------------------------------4-6----4-6-|
|----4-6---------4-6--------4-6--------7-7----7-7-|
|----7-7---------7-7--------7-7-------------------|
|-------------------------------------------------|

Rythmn 2
|-------------------------------------------6-----|
|-----------------------------------5---7---------|
|---4-4-4-4-4---------4-4-4-4----6----------------|
|---6-6-6-6-6--4-4-4--7-7-7-7---------------------|
|--------------7-7-7------------------------------|
|-------------------------------------------------|

|-------------------------------------------6-----|
|-----------------------------------5---7---------|
|---4-4-4-4-4---------4-4-4-4----6----------------|
|---6-6-6-6-6--4-4-4--7-7-7-7---------------------|
|--------------7-7-7------------------------------|
|-------------------------------------------------|

|-------------------------------------------6-----|
|-----------------------------------5---7---------|
|---4-4-4-4-4---------4-4-4-4----6----------------|
|---6-6-6-6-6--4-4-4--7-7-7-7---------------------|
|--------------7-7-7------------------------------|
|-------------------------------------------------|

|-------------------------------------------6-----|
|-----------------------------------5---7---------|
|---4-4-4-4-4---------4-4-4-4----6----------------|
|---6-6-6-6-6--4-4-4--7-7-7-7---------------------|
|--------------7-7-7------------------------------|
|-------------------------------------------------|
Tap to rate this tab
# A B C D E F G H I J K L M N O P Q R S T U V W X Y Z