Song name
# A B C D E F G H I J K L M N O P Q R S T U V W X Y Z

Maximo Park - Now Im All Over The Shop tab

Help us improve GuitareTab! Take a short survey!
Tabbed by 'The Bear'.

I'll write out the tabs for all the individual sections, and leave you to piece it 
into the full song. Enjoy.


INTRO

(Played in one hand position like below or change the high notes so they're all played 
one string, either D or G string. Whatever's comfortable)

|--------------------------------------------|
|--------------------------------------------|
|--------9-9-8-8-----------------------------|
|----------------11-11------10-10--11--11----|
|----0-0----------------0-0------------------|
|--------------------------------------------| REPEAT AS NECESSARY


VERSE ("I washed my hands of you")

|----------------------------------------|
|----------9--9-9-9----------------------|
|----------9--9-9-9----------------------|
|---9-9-9--9--9-9-9---6/7-7-7--7-7-7-----|
|---9-9-9--7--7-7-7---6/7-7-7--7-7-7-----|
|---7-7-7-------------4/5-5-5--5-5-5-----| REPEAT


BRIDGE ("I know you'll be content..")

|--4----7----9----4----7----5-------|
|--5----9----10---5----9----7-------|
|--4----9----9----4----9----7-------|
|--6----9----11---6----9----7-------|
|--4----7----9----4----7----5-------|
|-----------------------------------|

|--4----7----9----4----7----5--5-5-5-5-5-5-5-5-5-5-5--|
|--5----9----10---5----9----7--7-7-7-7-7-7-7-7-7-7-7--|
|--4----9----9----4----9----7--7-7-7-7-7-7-7-7-7-7-7--|
|--6----9----11---6----9----7--7-7-7-7-7-7-7-7-7-7-7--|
|--4----7----9----4----7----5--5-5-5-5-5-5-5-5-5-5-5--|
|-----------------------------------------------------|


CHORUS ("I never held you...")

|-----2---2-2-2------2---2-2-2------4---4-4-4----2-2-2-2-2-2--|
|-----2---2-2-2------3---3-3-3------5---5-5-5----3-3-3-3-3-3--|
|-----2---2-2-2------2---2-2-2------4---4-4-4----2-2-2-2-2-2--|
|--2--2---2-2-2---4--4---4-4-4---6--6---6-6-6----4-4-4-4-4-4--|
|--0--0---0-0-0---2--2---2-2-2---4--4---4-4-4----2-2-2-2-2-2--|
|-------------------------------------------------------------| REPEAT

Please feel free to comment/rate. Thanks.
Related for Now Im All Over The Shop tab