Guitaretab - guitar tabs
Song name
# A B C D E F G H I J K L M N O P Q R S T U V W X Y Z

Maximo Park - Nosebleed Acoustic tab

I saw a video of an acoustic version of this song on youtube. It really catched me and I 
to play it. Took me quite some time to figure those chords out.
Hope you enjoy it! :D

INTRO
|-10----10----|
|-10----12----|
|-11----11----| <-Iím really not sure about this part but it works for me :/
|-0-----0-----|
|-x-----x-----|
|-x-----x-----|

VERSES
|-----------------------------------------------------------|
|-----------------------------------------------------------|
|-----------------------------------------------------------|
|-----4-----4-----4---4---4------5-----5-----5---5---5------|
|-5-5---5-5---5-5---5---5----4-4---4-4---4-4---4---4--------|
|-----------------------------------------------------------|

|-------------------------------2--x------------------------|
|-------------------------------3--2------------------------|
|-------------------------------4--2------------------------|
|-----4-----4-----4---4---4-----4--2------------------------|
|-5-5---5-5---5-5---5---5-------2--0------------------------|
|-------------------------------x--x------------------------|
You were born in winter
The summer came too fast
Like a child you can't control
Now isn't it obvious?

|-----0--------------------------------0-----0---0---0------|
|-----------7-----7---7---7------7--------------------------|
|-----------------------------------------------------------|
|-----------------------------------------------------------|
|-5-5---5-5---5-5---5---5----4-4---4-4---4-4---4---4--------|
|-----------------------------------------------------------|
[ Tab from: http://www.guitaretab.com/m/maximo-park/89238.html ]
|-----0-------------------------2--x------------------------|
|-----------7-----7---7---7-----3--2------------------------|
|-------------------------------4--2------------------------|
|-------------------------------4--2------------------------|
|-5-5---5-5---5-5---5---5-------2--0------------------------|
|-------------------------------x--x------------------------|
You still value his word
Now that it's not there
A love life down the drain
Now isn't it obvious?

Some people hide their emotions
And some people show too much
I'm aiming for somewhere central
Now isn't it obvious?

CHORUS
|-5--5--5--5----7--7--7--7---|---5---7---5----2----3----0---0---0-------|
|-5--7--5--5----7--8--7--7---|---7---8---7----3----3----2---2---2-------|
|-7--7--7--9----9--9--9--11--|---7---9---7----4----4----2---2---2-------|
|-7--7--7--7----9--9--9--9---|---7---9---7----4----5----2---4---5-------|
|-5--5--5--5----7--7--7--7---|---5---7---5----2----5----0---0---0-------|
|-x--x--x--x----x--x--x--x---|---x---x---x----x----3----x---x---x-------|

He changed his look for you
But you changed your life for him
Now was the verdict worth the trial?
Did we go too far, is that why your nose is bleeding?
Last night I dreamt we kissed on a bench in the evening

VERSE
What went wrong with you?
I never took you for a fool
But all it takes is a rumour
Now isn't it obvious?

I'd love to clear the air
But I can't bear to hear your voice
It's tainted with his name
Now isn't it obvious?

CHORUS
He changed his look for you
But you changed your life for him
Now was the verdict worth the trial?
Did we go too far, is that why your nose is bleeding?
Last night I dreamt we kissed on a bench in the evening

Did we go too far, is that why your nose is bleeding?
Last night I dreamt we kissed on a bench in the evening
I was the one who followed
And you were the one who was leading
When last night I dreamt we kissed on a bench in the evening
Related for Nosebleed Acoustic tab