Song name
# A B C D E F G H I J K L M N O P Q R S T U V W X Y Z

Maximo Park - Books From Boxes Acoustic tab

Help us improve GuitareTab! Take a short survey!
VERSE
B – F – Dm – C – B – C - Dm
PRE CHORUS
B – C – Dm – C
CHORUS
Dm – E - F – B – C
BRIDGE 2
Em – G - D

INTRO
E||-----8--5----------5-------|-------5------------5-------|
B||-----------6--8-------6----|--8-------6----8-------6----|
G||--7--------------7------7--|-----7------7-----7------7--|

E||-------3------------3-------|-----5-----------8----6---|
B||-----5----5-------5----5----|--6-------6--8--8----8----|
G||--5---------5--5---------5--|--------------------------|

INTRO-VERSE
E|-------------------------------------------|
B|-------------------------------------------|
G|-------------------------------------------|
D|--3-3—10-10--7-7--5-5--2-2--3-2--3-3--3-3--|
A|--1-1--8--8--5-5--3-3--3-3--3-3--1-1--1-1--|
E|-------------------------------------------|

E|-------------------------------------------|
B|-------------------------------------------|
G|-------------------------------------------|
D|--3-3—10-10--7-7--5-5--3-3--5-5--7-7--7-7--|
A|--1-1--8--8--5-5--3-3--1-1--3-3--5-5--5-5--|
E|-------------------------------------------|
Night Falls, and towns become circuit boards
We can beat the sun, as long as we keep moving

VERSE
E|-------------------------------------------|
B|-------------------------------------------|
G|-------------------------------------------|
D|--3-3—10-10--7-7--5-5--2-2--3-2--3-3--3-3--|
A|--1-1--8--8--5-5--3-3--3-3--3-3--1-1--1-1--|
E|-------------------------------------------|
From the air, stadium lights stand out like flares
And all I know, is that your sat here right next to me

E|-----------------------------------------------------5------x-|
B|-------------------------------------------------------6----x-|
G|-------3--3s5--3-----------------------------------------7--x-|
D|----3-------------5--7---7--5---5----3------5---------------x-|
A|-1---------------------5------3----1---1--3---3---5---------x-|
E|------------------------------------------------------------x-|
We rarely see, warning signs in the air we breathe
Right now i feel each and every fragment

PRE CHORUS
--------------------------|--------------------------|
3-3-3-3-3-3-3-3-3-3-5-5-5-|6-6-6-6-6-6-6-6-6-6-5-5-5-|
3-3-3-3-3-3-3-3-3-3-5-5-5-|7-7-7-7-7-7-7-7-7-7-5-5-5-|
3-3-3-3-3-3-3-3-3-3-5-5-5-|7-7-7-7-7-7-7-7-7-7-5-5-5-|
1-1-1-1-1-1-1-1-1-1-3-3-3-|5-5-5-5-5-5-5-5-5-5-3-3-3-|
--------------------------|--------------------------|
This paper trail leads right back to you

--------------------------|----------------------------|
3-3-3-3-3-3-3-3-3-3-5-5-5-|6-6-6-6-6-6-6-6-6-6-6-6-6-6-|
3-3-3-3-3-3-3-3-3-3-5-5-5-|7-7-7-7-7-7-7-7-7-7-7-7-7-7-|
3-3-3-3-3-3-3-3-3-3-5-5-5-|7-7-7-7-7-7-7-7-7-7-7-7-7-7-|
1-1-1-1-1-1-1-1-1-1-3-3-3-|5-5-5-5-5-5-5-5-5-5-5-5-5-5-|
--------------------------|----------------------------|
You say you need me to step outside

CHORUS
--------------------------|-6-6-6-6-6-6-6-6-6-6-6-6-|
-6-6-6-6--9--10-10-10-10--|-6-6-6-6-6-6-6-6-6-6-6-6-|
-7-7-7-7--9--10-10-10-10--|-7-7-7-7-7-7-7-7-7-7-7-7-|
-7-7-7-7--9--10-10-10-10--|-8-8-8-8-8-8-8-8-8-8-8-8-|
-5-5-5-5--7---8--8--8--8--|-8-8-8-8-8-8-8-8-8-8-8-8-|
--------------------------|-6-6-6-6-6-6-6-6-6-6-6-6-|

--8--8--8--8--8--8--8--8--|--8--8--8--8--8--8--8--8-| -- |
--8--8--8--8--8--8--8--8--|--8--8--8--8--8--8--8--8-| -- |
--9--9--9--9--9--9--9--9--|--9--9--9--9--9--9--9--9-| -- |
--10-10-10-10-10-10-10-10-|--10-10-10-10-10-10-10-10| -- |
--10-10-10-10-10-10-10-10-|--10-10-10-10-10-10-10-10| -- |
--8--8--8--8--8--8--8--8--|--8--8--8--8--8--8--8--8----- |  /
We spent the evening unpacking books from boxes
You passed me up, so as not to break a promise
Scattered polaroids and sprinkled words around your collar
In the long run, you said you knew that this would happen

VERSE

CHORUS

BRIDGE
E|-----0--------------0--------------0-------3-----2-----------|
B|-------------------------------------3-------3------3--------|
G|-3s4---4--4s6--6s7----7--7s4--4s2------2-------2------2------|
D|-------------------------------------------------------------|
A|-------------------------------------------------------------|
E|-------------------------------------------------------------|
Two bodies in motion, this is a matter of fact, it wasn’t built to last
Related for Books From Boxes Acoustic tab