Song name
# A B C D E F G H I J K L M N O P Q R S T U V W X Y Z

Maximum Capacity - Royalty tab

)= bend downward
(= bend downward
/= slide up
\= slide down
<->= strike note after sliding
}= slur


      
         the intro is played without distortion, and about half gain

|--------------------------------------------------------------|
|--------------------------------------------------------------|
|--------------------------------------------------------------|
|--------------------------------------------------------------|
|--------------------------------------------------------------|
|--0-0--2-2--4-4---0-0--2-2--4-4-2)--0-0-0--2-2--4--4--6-6-4)--|


|--------------------------------------------------------------|
|--------------------------------------------------------------|
|--------------------------------------------------------------|
|--------------------------------------------------------------|
|--------------------------------------------------------------|
|--0-0-0--2-2--4-4-6-6-4)---0-0--2-2--4-4--2-2--0--------------|



         ~then VERSE 1~ (play with max gain, no distortion)

|----------------------------------------------------------------|
|----------------------------------------------------------------|
|----------------------------------------------------------------|
|----------------------------------------------------------------|
|--0-0--1-1--3-3--|--0-0--1-1--3-3--1)--1-1-1--2-2--4-4--6-6--4)-|
|--0-0--2-2--4-4--|--0-0--2-2--4-4--2)--0-0-0--2-2--4-4--6-6--4)-|


|--------------------------------------------------------------|
|--------------------------------------------------------------|
|--------------------------------------------------------------|
|--------------------------------------------------------------|
|--0-0-0--2--2--2-4-4/6--4--|--1-1--2-2--4-4--2-2--0)----------|
|--0-0-0--2--2--2-4-4/6--4--|--0-0--2-2--4-4--2-2--0)----------|



    ~ok, heres the CHORUS (max gain, no distortion; kinda tricky)


|--------------------------------------------------------------|
|--------------------------------------------------------------|
|--------------------------------------------------------------|
|--------------------------------------------------------------|
|--1-1--3---1-0-0-1--3)   -----------------|
|----------------------0-0--2-2--4-4--|--6/8\<6>-----------------|



             CHORUS again


|--------------------------------------------------------------|
|--------------------------------------------------------------|
|--------------------------------------------------------------|
|--------------------------------------------------------------|
|--1-1--3---1-0-0-1--3)   
                        
                    
Tap to rate this tab
# A B C D E F G H I J K L M N O P Q R S T U V W X Y Z