Song name
# A B C D E F G H I J K L M N O P Q R S T U V W X Y Z

Maximum Capacity - These Memories tab

|--------------------------------------------------------------------|
|---------------------------------------------------------------\----|
|-------------------------------------------------------------- )\---|
|--12-h14-15---14-h15-17---15-h17-19---17-h19-21)21)21)21)-21__/  )--|
|--------------------------------------------------------------------|
|--------------------------------------------------------------------|



|--------------------------------------------------------------------|
|--------------------------------------------------------------------|
|--------------------------------------------------------------------|
|--21-h19-21)---21-21-21\19---19-19\17---17-17\15---15-15\13---------|
|--------------------------------------------------------------------|
|--------------------------------------------------------------------|



|-----------------------------\-------------------------\------------|
|-----------------------------)\------------------------)\-----------|
|------------9-9\7--9)9)9)-9_/  )--11-h12-14)14)14)-14_/  )----------|
|--13-13\12----------------------------------------------------------|
|--------------------------------------------------------------------|
|--------------------------------------------------------------------|



|-----------------------------\--------------------------------------|
|-----------------------------)\-------------12-h14-15-14)----15-14)-|
|--14-14-14\12---12-12\9--12_/  )--12-h14-15-------------------------|
|--------------------------------------------------------------------|
|--------------------------------------------------------------------|
|--------------------------------------------------------------------|



|-----------15-14-12-14-12)---12-h14-15/17-15-h14)---17-h15p-h13-----|
|--15-14-12----------------------------------------------------------|
|--------------------------------------------------------------------|
|--------------------------------------------------------------------|
|--------------------------------------------------------------------|
|--------------------------------------------------------------------|



|--17-15-13--17-15-13----19-17-15------------------------------------|
|--^ ^  play 3x  ^ ^--------------19-17-15---------------------------|
|------------------------------------------19-17-15------------------|
|---------------------------------------------------19-17-15)--------|
|--------------------------------------------------------------------|
|--------------------------------------------------------------------|



|--------------------------------------------------------\-----------|
|--------------------------------------------------------)\----------|
|----------------------------------------21)-21)-21)-21_/ )\---------|
|--15151515-17171717-19191919-21212121---21)-21)-21)-21__/  )--------|
|--^ ^ ^ ^  pick really fast  ^ ^ ^ ^--------------------------------|
|--^ ^ ^ ^  play three times  ^ ^ ^ ^--------------------------------|



|---------------------------------------------------------\----------|
|---------------------------------------------------------)\---------|
|---------------------------------------------14)-14)-14_/ )\--------|
|--21-21\19---19-19\17---17-17\15---15-15\13--14)-14)-14__/  )-------|
|--------------------------------------------------------------------|
|--------------------------------------------------------------------|



|--------------------------------------------------------------------|
|--------------------------------------------------------------------|
|--------------------------------------------------------------------|
|--14-h12--12-h10--10-h9---------------------------------------------|
|------------------------12-h10--9~~~~~~~~~~~~~~~~~~~~~~~~~~~~~~~~~~~|
|--------------------------------------------------------------------|




LEGEND
=================
h= hammer on
p= pull off
)= bend half step
/= slide up
\= slide down

  \
  )\  =  bend full step
_/  )
Tap to rate this tab
 
# A B C D E F G H I J K L M N O P Q R S T U V W X Y Z